Табулатура Black Sabbath | Black Moon (4:06) гитара табулатуры уроки тексты песен Black Sabbath текст lyrics песня аккорды песни ноты нота электрогитара струна  
   А Б В Г Д Е Ж З И К Л М Н О П Р С Т У Ф Х Ч Ш Ы Э Ю Я       Разные песни
1-9 A B C D E F G H I J K L M N O P Q R S T U V W Y Z      Все исполнители in english

    



группа Black Sabbath, Табулатура песни Black Moon (4:06)

Продолжаем грести бабос на ботах в Telegram.
Только в этот раз есть вариант автоматизировать это дело, привлекая рефералов. Вы можете заработать если »

Группа: Black Sabbath - другие аккорды (243),   о группе (21 статей),   диски (20),   фотографии (152)
Табулатура песни: Black Moon (4:06)
Просмотров: 1187
Прислал: Sabbath (sabbath54@mail.ru)




    
from - Michael James 
Blackmoon
Black Sabbath - Headless Cross (1989)

|------------------------------------------------------------
|------------------------------------------------------------
|------------------------/7-----------------5----------------
|-7--10--7-----2--5--7--/7---7--10--7--5/7-------7--10--7---
|-7--10--7-----2--5--7--/5---7--10--7--------85-7--10--7---
|-5---8--5-----0--3--5-------5---8--5------------5---8--5---

1st time =======================||2nd time=======
|-------------------------------||---------------------------
|-------------------------------||---------------------------
|--------2-------------7--------||-----------2---4-----------

Продолжаем грести бабос на ботах в Telegram.
Только в этот раз есть вариант автоматизировать это дело, привлекая рефералов. Вы можете заработать если »

|-5------2------3------7------5-||-3----5----2---4--5-------- |---7---0------3------5------5-||-3----5----0---2--5-------- |---------------1-------------3-||-1----3-----------3-------- |---------------------------------------------------------- |---------------------------------------------------------- |-------------------------------------------5-------------- |--2--5--7-----------2--5--7------------5/7---------------- |--2--5--7-----------2--5--7------------------85---0-3-0-- |--0--3--5-----------0--3--5-------------------------------

www.rdrop.com/~mjames/sabbath/
лекарство в аптеке
список лекарств

Сдать отчет

В продаже - Сдаю, низкие цены! Невостребованные остатки

myotchet.ru








О сайтеАккордыХит-парадПоискУроки ФорумыИщу песню
ПрограммыСвежачок-сПодпискаСтатьи
Яндекс.Метрика