Табулатура Black Sabbath | Call Of The Wild (5:18) гитара табулатуры уроки тексты песен Black Sabbath текст lyrics песня аккорды песни ноты нота электрогитара струна  
   А Б В Г Д Е Ж З И К Л М Н О П Р С Т У Ф Х Ч Ш Ы Э Ю Я       Разные песни
1-9 A B C D E F G H I J K L M N O P Q R S T U V W Y Z      Все исполнители in english

    



группа Black Sabbath, Табулатура песни Call Of The Wild (5:18)

Продолжаем грести бабос на ботах в Telegram.
Только в этот раз есть вариант автоматизировать это дело, привлекая рефералов. Вы можете заработать если »

Группа: Black Sabbath - другие аккорды (243),   о группе (21 статей),   диски (20),   фотографии (152)
Табулатура песни: Call Of The Wild (5:18)
Просмотров: 1079
Прислал: Sabbath (sabbath54@mail.ru)




    
from - Michael James 
Call Of The Wild
Black Sabbath - Headless Cross (1989)

                                | *1&2*  ||  **3**
|----------------------------------------||----------------
|----------------------------------------||----------------
|--4--6------2-----/6--4---4--6----------||--------2-------
|--4--6------2-----/6--4---4--6------2---||------2-2-------
|--2--4----0---00----------2--4--4-2---4-||--4-2---0-------
|----------------------------------------||----------------
"in this last and final hour..."
|----------------------------------------------------------
|--------------------------------------------5-4-----------
|-6----------------4---6-----------4--2--6-------4---------
|-6----------------4---6-----------4--2--6---------4-2-----
|-4----------------2---4-----------2--0--4-----------------
|----------------------------------------------------------
                  "its the call of the wild"
|----------------------------------------------------------
|----------------------------------------------------------
|----------------------------------------------------------
|---4-3-4-3h4p3---3--4--------4-3-4-3h4p3------------------ 
|-2-------------5-----------2-------------5--4-------------
|-----------------------------------------------4-3-2------
"calling you, hero..."
|----------------------------------------------------------
|----------------------------------------------------------
|--7------4--6------2-----/6--4--4--6----------------------
|--7--7---4--6------2-----/6--4--4--6-------2--------------
|--5--7---2--4----0---0-0--------2--4---4-2---4------------
|-----5----------------------------------------------------
|----------------------------------------------------------
|-----6-----6-----6-----6-----6----------------------------
|---7-----7-----7-----7-----7------------------------------
|-0-----0-----0-----0-----0--------------------------------
|----------------------------------------------------------
|----------------------------------------------------------
|
|-------8--5-----------------------------------------------
|-----6------6----------------8--6-------------------------
|---7----------7-----5-7-8----------75-7------------------
|----------------------------------------------------------
|----------------------------------------------------------
|----------------------------------------------------------
(in background)
|-----------------------13-12-10---------------------------
|-13^---13^p10-13^-13^-----------13-10---------------------
|--------------------------------------12^-----------------
|----------------------------------------------------------
|----------------------------------------------------------
|----------------------------------------------------------
|----------------------------------------------------------
|----------------------------------------------------------
|-2-----2-------------2-----2--------------3---------------
|-2-----2-------------2-----2------------3-----------------
|-0-----0-------/3-1--0-----0-------/3-1-------------------
|----3~-----0-1----------3~-----0-1------------------------
Solo:
|----------10----------------------------------------------

Продолжаем грести бабос на ботах в Telegram.
Только в этот раз есть вариант автоматизировать это дело, привлекая рефералов. Вы можете заработать если »

|-13^-13^-----13-10---------------------------------------- |-------------------12-10----12^-10------------------------ |-------------------------12--------12--10----------------- |------------------------------------------1210-^^p8------ |-----------------------------------------------------10--- |---------------------------------------------------------- |---------------------------------13-15^---^^p13-15-------- |-------------------------10-12/14------------------------- |-------------------10-12---------------------------------- |------8-10p8-10/12---------------------------------------- |-8-10----------------------------------------------------- |---------------------------------------------------------- |-13----------13^^p10-------------------------------------- |----14p12-14---------12^---^^p10----------------10-------- |---------------------------------12------10h12-----12----- |---------------------------------------------------------- |---------------------------------------------------------- |--------------------------15^----13-12----13-12----------- |---------------------------------------15-------15-------- |-12^-12-10-------------10--------------------------------- |-----------12----10h12------------------------------------ |---------------------------------------------------------- |---------------------------------------------------------- |------------------------------------------------------------ |-18p17p15-13p15h13-10h13p10h13------------------------------ |------------------------------12p10h12p10h12p10------------- |------------------------------------------------10h12p10h12- |------------------------------------------------------------ |------------------------------------------------------------ |-----------------------------------------------15^---15-17 |-----------------------------------------13-15------------ |--------------------------------10-12/14------------------ |--------------------------10/12--------------------------- |-10h12p108--8-10/12-10h12-------------------------------- |-----------10--------------------------------------------- |-17-20^-20^-20^--^^^p17-22^^^22---------13-12-------10---- |-----------------------------------/15-------15-13^------ |---------------------------------------------------------- |---------------------------------------------------------- |---------------------------------------------------------- |---------------------------------------------------------- |---------------------------------------------------------- |-13p10---------------------------------------------------- |------------------10----------12^p10----10----------10---- |-------12---10h12----12-10-12--------12----12-10h12------- |---------------------------------------------------------- |---------------------------------------------------------- "fear of the devil..." |---------------------------------------------------------- |-------13-15^-^p14---------------------------------------- |-12/14-----------6-------------4--6----------------------- |-----------------6-------------4--6----------------------- |-----------------4-------------2--4----------------------- |----------------------------------------------------------

www.rdrop.com/~mjames/sabbath/
поиск лекарств
список лекарств

Магазин дверей

В продаже - Двери, низкие цены! Невостребованные остатки

doorsshop1.ru








О сайтеАккордыХит-парадПоискУроки ФорумыИщу песню
ПрограммыСвежачок-сПодпискаСтатьи
Яндекс.Метрика