Табулатура Black Sabbath | Kill In The Spirit World (5:10) гитара табулатуры уроки тексты песен Black Sabbath текст lyrics песня аккорды песни ноты нота электрогитара струна  
   А Б В Г Д Е Ж З И К Л М Н О П Р С Т У Ф Х Ч Ш Ы Э Ю Я       Разные песни
1-9 A B C D E F G H I J K L M N O P Q R S T U V W Y Z      Все исполнители in english

    



группа Black Sabbath, Табулатура песни Kill In The Spirit World (5:10)

Продолжаем грести бабос на ботах в Telegram.
Только в этот раз есть вариант автоматизировать это дело, привлекая рефералов. Вы можете заработать если »

Группа: Black Sabbath - другие аккорды (243),   о группе (21 статей),   диски (20),   фотографии (152)
Табулатура песни: Kill In The Spirit World (5:10)
Просмотров: 1323
Прислал: Sabbath (sabbath54@mail.ru)




    

from - Michael James 
Kill In The Spirit World
Black Sabbath - Headless Cross (1989)

|----------------------------------------------------------
|----------------------------------------------------------
|----------------------------------------7---5-------------
|--------------7-7-5----7-7-5----2-------7---5-------------
|-----7-7-5----------7--------7--2-------5---3-------------
|-5h7-------7--------------------0-------------------------
VERSE:
|----------------------------------------------------------------
|----------------------------------------------------------------
|-7----mute-----10--let ring-----7-----10------------------------
|-7---8---------10--10-----------7--8--10--10----8---------------
|-5---8----------8--10-----------5--8---8--10----8--7h8p7-5------
|-----6--------------8--------------6-------8----6----------7p5--
                                "theres been a kill in the spirit..."
|----------------------------------------------------------
|--------------------------------------------10------------

Продолжаем грести бабос на ботах в Telegram.
Только в этот раз есть вариант автоматизировать это дело, привлекая рефералов. Вы можете заработать если »

|--------------------------------------(7)/9----97-------- |-------------------------------/8-7~---------------------- |---7-6---5-4---7-6---5-4---4-5---------------------------- |-5-----5-----5-----5-----5-------------------------------- |---------------------------------------------------------- |---------------------------------------------------------- |-------------------------------------------------5-------- |---------------------------------------------7---5-------- |---7-6---5-4---7-6---5-4---4-5---------------7---3-------- |-5-----5-----5-----5-----5-----/6-5~---------5------------ "when heaven is closer..." |---------------------------------------------------------- |---------------------------------------------------------- |--7--------------------7-------5-4-5--7------------------- |--7----------7---------7-------5-4-5--7------5-----3----5- |--5----------7---------5-------3-2-3--5------5-----3----5- |-------------5-------------------------------3-----1----3-

www.rdrop.com/~mjames/sabbath/
поиск лекарств
список лекарств






О сайтеАккордыХит-парадПоискУроки ФорумыИщу песню
ПрограммыСвежачок-сПодпискаСтатьи
Яндекс.Метрика