Табулатура Black Sabbath | Headless Cross (6:28) гитара табулатуры уроки тексты песен Black Sabbath текст lyrics песня аккорды песни ноты нота электрогитара струна  
   А Б В Г Д Е Ж З И К Л М Н О П Р С Т У Ф Х Ч Ш Ы Э Ю Я       Разные песни
1-9 A B C D E F G H I J K L M N O P Q R S T U V W Y Z      Все исполнители in english

    



группа Black Sabbath, Табулатура песни Headless Cross (6:28)

Продолжаем грести бабос на ботах в Telegram.
Только в этот раз есть вариант автоматизировать это дело, привлекая рефералов. Вы можете заработать если »

Группа: Black Sabbath - другие аккорды (243),   о группе (21 статей),   диски (20),   фотографии (152)
Табулатура песни: Headless Cross (6:28)
Просмотров: 2403
Прислал: Sabbath (sabbath54@mail.ru)




    
from - Michael James 
Headless Cross
Black Sabbath - Headless Cross (1989)

|--------------------------------------------------------------
|-------------------------------------------------10-9109------
|--7--------/9-----------------------7----9-11-9---------9-7---
|--7--------/9-----------------------7----9-11-9---------------
|--5--------/7-----------------------5----7--9-7---------------
|-----------------0-3^-0---0-3^-0------------------------------

|--------------------------------------------------------
|-----------------------------------5/7------------------
|-6---4-6---4-6-9-6---6-4-6---4-6---4/6-4/9--------------
|-6---4-6---4-6-9-6---6-4-6---4-6---2/4-4/9--------------
|-4---2-4---2-4-7-4---4-2-4---2-4-------2/7--------------
|--------------------------------------------------------
listen for the feet...---------(1)---|      (2)

Продолжаем грести бабос на ботах в Telegram.
Только в этот раз есть вариант автоматизировать это дело, привлекая рефералов. Вы можете заработать если »

|------------------------------------|------------------- |------------------------------------|------------------- |-2--------------6--6-4--9-6--64/6--|-----------9-8-6--- |-2--------4-----6--6-4--9-6--64/6--|--6--7--6--9-8-6--- |-0--------4-----4--4-2--7-4--42/4--|--6--7--6--7-6-4--- |----------2-------------------------|--4--5--4---------- |-------------------------------------------------------- |-------------------------------------------------------- |-------------------------------------------------------- |-------------------------------------------------------- |-7-6-7-9-10-9-7-6-7-6-7-9-10-9-12-9--------------------- |-5-4-5-7--8-7-5-4-5-4-5-7--8-7-10-7---------------------

www.rdrop.com/~mjames/sabbath/
найти лекарство
список лекарств

Сайты для поиска клиентов аренды

Отзывы клиентов. Сводный рейтинг сайтов. Реклама и продвижение сайтов

dmt.ru








О сайтеАккордыХит-парадПоискУроки ФорумыИщу песню
ПрограммыСвежачок-сПодпискаСтатьи
Яндекс.Метрика