Табулатура Black Sabbath | Eternal Idol (6:35) гитара табулатуры уроки тексты песен Black Sabbath текст lyrics песня аккорды песни ноты нота электрогитара струна  
   А Б В Г Д Е Ж З И К Л М Н О П Р С Т У Ф Х Ч Ш Ы Э Ю Я       Разные песни
1-9 A B C D E F G H I J K L M N O P Q R S T U V W Y Z      Все исполнители in english

    



группа Black Sabbath, Табулатура песни Eternal Idol (6:35)

Продолжаем грести бабос на ботах в Telegram.
Только в этот раз есть вариант автоматизировать это дело, привлекая рефералов. Вы можете заработать если »

Группа: Black Sabbath - другие аккорды (243),   о группе (21 статей),   диски (20),   фотографии (152)
Табулатура песни: Eternal Idol (6:35)
Просмотров: 1242
Прислал: Sabbath (sabbath54@mail.ru)




    

from - Michael James 
Eternal Idol
Black Sabbath - The Eternal Idol (1987)

|-------------------------------------------------------------
|-------------------------------------------------------------
|-------------------------------------------------------------
|-----9h10-----------9/10--------------9h10--------9/10-------
|---7--------------7------9--10------7-----------7------9--10-
|-0--------------0-----------------0-----------0--------------

|--------------------------------------------------------
|--------------------------------------------------------
|----12-11----11--10-----10-----5--5---------------------
|-2--12-11----11--10-----10-----5--5---------------------
|-2--10--9-----9---8------8---0-3--3---------------------
|-0------------------------------------------------------
|----------------------------------------------------------

Продолжаем грести бабос на ботах в Telegram.
Только в этот раз есть вариант автоматизировать это дело, привлекая рефералов. Вы можете заработать если »

|---------------------------------------------------------- |----12-11----14--10-----10-----5--5----------------------- |-2--12-11----14--10-----10-----5--5----------------------- |-2--10--9----12---8------8---0-3--3----------------------- |-0-------------------------------------------------------- |--------------------------------------------------------- |--------------------------------------------------------- |----12--------------------------------------------------- |-2--12--8--------7--------6---9--5----------------------- |-2--10--8--------7--------6---9--5----------------------- |-0------6--------5--------4---7--3-----------------------

www.rdrop.com/~mjames/sabbath/
найти лекарство
список лекарств






О сайтеАккордыХит-парадПоискУроки ФорумыИщу песню
ПрограммыСвежачок-сПодпискаСтатьи
Яндекс.Метрика