Табулатура Black Sabbath | Scarlet Pimpernel (2:07) (instrumental) гитара табулатуры уроки тексты песен Black Sabbath текст lyrics песня аккорды песни ноты нота электрогитара струна  
   А Б В Г Д Е Ж З И К Л М Н О П Р С Т У Ф Х Ч Ш Ы Э Ю Я       Разные песни
1-9 A B C D E F G H I J K L M N O P Q R S T U V W Y Z      Все исполнители in english

    



группа Black Sabbath, Табулатура песни Scarlet Pimpernel (2:07) (instrumental)

Продолжаем грести бабос на ботах в Telegram.
Только в этот раз есть вариант автоматизировать это дело, привлекая рефералов. Вы можете заработать если »

Группа: Black Sabbath - другие аккорды (243),   о группе (21 статей),   диски (20),   фотографии (152)
Табулатура песни: Scarlet Pimpernel (2:07) (instrumental)
Просмотров: 1077
Прислал: Sabbath (sabbath54@mail.ru)




    
from - Michael James 
Scarlet Pimpernal
Black Sabbath - The Eternal Idol (1987)

|---0h1p0-0h1p0-1-------0h1p0-0h1p0-1----------------------
|-----------------3-------------------3--------------------
|-------------------2-------------------2------------------
|-0-------------0-----0-------------0----------------------
|----------------------------------------------------------
|----------------------------------------------------------

|--------------------------------------------------------------------
|----------6-----5-----------------------------6-----5-----5--6p5----
|----7--5-----5-----7-----7-----7--------7--5-----5-----7----------7-
|-0--------------------7--------------0------------------------------
|----------------------------8-----7---------------------------------
|--------------------------------------------------------------------
|
|---0h1p0-0h1p0--------------------------------------------
|----------------------------------------------------------
|----------------------------------------------------------
|-0--------------------------------------------------------
|---------------1---------3--------------------------------
|----------------------------------------------------------

Продолжаем грести бабос на ботах в Telegram.
Только в этот раз есть вариант автоматизировать это дело, привлекая рефералов. Вы можете заработать если »

|---------------------------------------------------------- |---------------1-------3---------------------------------- |-----0-2p0-----------2------------------------------------ |---3-------3-2---2-0-----0-2-3-0----/7-5-3-0-------------- |-1--------------------------------3----------------------- |---------------------------------------------------------- |----------------------------------------------------------------- |----------------------------------------------------------------- |-----0-2p0-------5----------------------5---------2-------------- |---3-------3-5/7---7----0--2--3--5--5/7---7-5-3-5---3-0-5-3---0-- |-1-------------------3--------------------------------------3---- |----------------------------------------------------------------- |---------------------------------------------------------- |-6p5--5--8---------6p5------------------------------------ |------------7-----------7--5--7--------------------------- |---------------------------------------------------------- |---------------------------------------------------------- |----------------------------------------------------------

www.rdrop.com/~mjames/sabbath/
найти лекарство
список лекарств






О сайтеАккордыХит-парадПоискУроки ФорумыИщу песню
ПрограммыСвежачок-сПодпискаСтатьи
Яндекс.Метрика