Табулатура Black Sabbath | Nightmare (5:17) гитара табулатуры уроки тексты песен Black Sabbath текст lyrics песня аккорды песни ноты нота электрогитара струна  
   А Б В Г Д Е Ж З И К Л М Н О П Р С Т У Ф Х Ч Ш Ы Э Ю Я       Разные песни
1-9 A B C D E F G H I J K L M N O P Q R S T U V W Y Z      Все исполнители in english

    



группа Black Sabbath, Табулатура песни Nightmare (5:17)

Продолжаем грести бабос на ботах в Telegram.
Только в этот раз есть вариант автоматизировать это дело, привлекая рефералов. Вы можете заработать если »

Группа: Black Sabbath - другие аккорды (243),   о группе (21 статей),   диски (20),   фотографии (152)
Табулатура песни: Nightmare (5:17)
Просмотров: 1379
Прислал: Sabbath (sabbath54@mail.ru)




    

from - Michael James 
Nightmare
Black Sabbath - The Eternal Idol (1987)

|----------------------------------------------------------
|----------------------------------------------------------
|------------5-----7-7--5--------------5-----7-7--5--------
|--5h6h7-----5--7--7-7--5----5h6h7-----5--7--7-7--5--------
|--------0-------------------------0-----------------------
|----------------------------------------------------------

|-------------------------------
|-------------------------------
|----10----10----12----12-------

Продолжаем грести бабос на ботах в Telegram.
Только в этот раз есть вариант автоматизировать это дело, привлекая рефералов. Вы можете заработать если »

|----10----10----12----12------- |-----8-----8----10----10------- |------------------------------- |---------------------------------------------------------- |---------------------------------------------------------- |-------------9--8-------4-4h5------9--8/9-8-----4--5---- |-------------7--6-------5-5--------7--6/7-6-----5--5---- |-0-0-0-0-0-0---------0-0--------0-0----------------------- |----------------------------------------------------------

www.rdrop.com/~mjames/sabbath/
искать в аптеке
список лекарств






О сайтеАккордыХит-парадПоискУроки ФорумыИщу песню
ПрограммыСвежачок-сПодпискаСтатьи
Яндекс.Метрика