Табулатура Black Sabbath | Born To Lose (3:43) гитара табулатуры уроки тексты песен Black Sabbath текст lyrics песня аккорды песни ноты нота электрогитара струна  
   А Б В Г Д Е Ж З И К Л М Н О П Р С Т У Ф Х Ч Ш Ы Э Ю Я       Разные песни
1-9 A B C D E F G H I J K L M N O P Q R S T U V W Y Z      Все исполнители in english

    



группа Black Sabbath, Табулатура песни Born To Lose (3:43)

Продолжаем грести бабос на ботах в Telegram.
Только в этот раз есть вариант автоматизировать это дело, привлекая рефералов. Вы можете заработать если »

Группа: Black Sabbath - другие аккорды (243),   о группе (21 статей),   диски (20),   фотографии (152)
Табулатура песни: Born To Lose (3:43)
Просмотров: 1423
Прислал: Sabbath (sabbath54@mail.ru)




    
from - Michael James 
Born To Lose
Black Sabbath - The Eternal Idol (1987)

Fig A
|----------------------------------------------------------
|----------------------------------------------------------
|---4h5---4h5---4h5---4h5----/7-7-7-7-7---/5-5-5-/54-2--
|---4h5---4h5---4h5---4h5----/7-7-7-7-7---/5-5-5-/54-2--
|-0-----0-----0-----0--------------------------------------
|----------------------------------------------------------
"You think.."
|----------------------------------------------------------
|----------------------------------------------------------
|---------2-5-4~--------4h5-2~~----------------------------
|---2-3-5--------------------------------------------------
|-3--------------------------------------------------------
|----------------------------------------------------------
  C           G         F         C      back to fig A

|----------------------------------------------------------
|----------------------------------------(let ring)--------
|---------2-5-4~------4h5-2~---/4--5--7--9~~-<<--<<--<<--<<
|---2-3-5--------------------------------------------------

Продолжаем грести бабос на ботах в Telegram.
Только в этот раз есть вариант автоматизировать это дело, привлекая рефералов. Вы можете заработать если »

|-3-------------------------------------------------------- |---------------------------------------------------------- |----------------------------------------------------------------- |----------------------------------------------------------------- |-------------109--1210-10-109-----------109--1210--10-109-- |-------------109--1210-10-109-----------109--1210--10-109-- |-7-7-7-7-7-7--87--10-8--8--87-7-7-7-7-7--87--10-8---8--87-- |----------------------------------------------------------------- |---------------------------------------------------------- |---------------------------------------------------------- |-------------97--95--4--2------------------------------- |-------------97--95--4--2------------------------------- |-7-7-7-7-7-7-75--73--2--0------------------------------- |---------------------------------------------------------- rythem for solo: A F D G A

www.rdrop.com/~mjames/sabbath/
искать в аптеке
список лекарств






О сайтеАккордыХит-парадПоискУроки ФорумыИщу песню
ПрограммыСвежачок-сПодпискаСтатьи
Яндекс.Метрика