Табулатура Black Sabbath | Hard Life To Love (5:00) гитара табулатуры уроки тексты песен Black Sabbath текст lyrics песня аккорды песни ноты нота электрогитара струна  
   А Б В Г Д Е Ж З И К Л М Н О П Р С Т У Ф Х Ч Ш Ы Э Ю Я       Разные песни
1-9 A B C D E F G H I J K L M N O P Q R S T U V W Y Z      Все исполнители in english

    



группа Black Sabbath, Табулатура песни Hard Life To Love (5:00)

Продолжаем грести бабос на ботах в Telegram.
Только в этот раз есть вариант автоматизировать это дело, привлекая рефералов. Вы можете заработать если »

Группа: Black Sabbath - другие аккорды (243),   о группе (21 статей),   диски (20),   фотографии (152)
Табулатура песни: Hard Life To Love (5:00)
Просмотров: 1186
Прислал: Sabbath (sabbath54@mail.ru)




    
from - Michael James 
Hard Life To Love
Black Sabbath - The Eternal Idol (1987)

fig 1
|----------------------------------------------------------
|----------------------------------------------------------
|----------------------------------------------------------
|---2^p0--2-0---------------2^p0--2-0----------------------
|-------2-----2-----0-1-2-------2-----2-----0-1-2----------
|-0-------------0-4-------0-------------0-4----------------
fig 2
|-------3--------------------------------||----3----------
|-------3--------------------------------||----3----------
|--5----0--------------------------------||-5--0--4---5-7-
|--5----0------2~p0--2-0-----2~p0--2-0---||-5--0--4---5-7-back to fig 1
|--3----2----------2-----2-------2-----2-||-3--2--2---3-5-
|-------3----0-------------0-------------||----3----------

Продолжаем грести бабос на ботах в Telegram.
Только в этот раз есть вариант автоматизировать это дело, привлекая рефералов. Вы можете заработать если »

fig 3 "im sick of refusing..." |--------------------------------------------------------- |--------------------------------------------------------- |--------------------------------------------------------- |---------------------------------2-2--------------------- |-----5-7-5----2------------------0-0--------------------- |--8-------------3-5--7-8-7---5-3------3--22322322322322-- |-------------------------|---------------------------------- |-------------------------|---------------------------------- |-------------------------|---------------------------------- |--2-2--------------------|---------------------------------- |--0-0--------------------|----5-7-5---2---/7--5------------- |-------3--22322322322322-|-8------------3-------8-7--7-8----

www.rdrop.com/~mjames/sabbath/
искать в аптеке
список лекарств






О сайтеАккордыХит-парадПоискУроки ФорумыИщу песню
ПрограммыСвежачок-сПодпискаСтатьи
Яндекс.Метрика