Табулатура Black Sabbath | Ancient Warrior (5:34) гитара табулатуры уроки тексты песен Black Sabbath текст lyrics песня аккорды песни ноты нота электрогитара струна  
   А Б В Г Д Е Ж З И К Л М Н О П Р С Т У Ф Х Ч Ш Ы Э Ю Я       Разные песни
1-9 A B C D E F G H I J K L M N O P Q R S T U V W Y Z      Все исполнители in english

    



группа Black Sabbath, Табулатура песни Ancient Warrior (5:34)

Продолжаем грести бабос на ботах в Telegram.
Только в этот раз есть вариант автоматизировать это дело, привлекая рефералов. Вы можете заработать если »

Группа: Black Sabbath - другие аккорды (243),   о группе (21 статей),   диски (20),   фотографии (152)
Табулатура песни: Ancient Warrior (5:34)
Просмотров: 1240
Прислал: Sabbath (sabbath54@mail.ru)




    
from - Michael James 
Ancient Warrior
Black Sabbath - The Eternal Idol (1987)

|------------------------------------------------------------------
|------------------------------------------------------------------
|------------------------------------------------------------------
|------------------------------------------------------------------
|-10-----9-----7-----7-----7-9-----10-----9-----7--------0--------
|----0-0---0-0---0-0---0-0-----10-----0-0---0-0-----0-2-3---3-2-0--

|----------------------------------------------------------
|----------------------------------------------------------
|----------------------------------------------------------
|---------6------------------------6----------7------------
|---7p6-7---7-6-6--7---------7p6-7---7-6-6--7---5~---------
|-0------------------0000000-------------------------------

|------------------------------------------------------------------
|------------------------------------------------------------------
|--------------9-----9--------------------------9-----------------
|--------------9-----9--------------------------9-----------------
|-10-----9-----7-----7-----7-9-----10-----9-----7--------0--------
|----0-0---0-0---0-0---0-0-----10-----0-0---0-0-----0-2-3---3-2-0--

|---------------------------------------------------------------

Продолжаем грести бабос на ботах в Telegram.
Только в этот раз есть вариант автоматизировать это дело, привлекая рефералов. Вы можете заработать если »

|--------------------------------------------------------------- |------------------9-8----8-8p7--------------------------------- |---------4-5-4---------9-------9-7---------------------5p4----- |-0h3h5-2---------------------------10-----5-6-7------------5-7- |---------------0--------------------------------000000--------- |---------------------------------------------------------- |---------------------------------------------------------- |------------------------------------4-3--------------------- |----7---6---5---3-5-2---------2--1------0-------------- |-0----------------------0--1------------------------------- |---------------------------------------------------------- |---------------------------------------------------------- |---------------------------------------------------------- |---------------------------------------------------------- |---------------------------------------------------------- |---------------------------------------------------------- |----------------------------------------------------------

www.rdrop.com/~mjames/sabbath/
лекарство в аптеке
список лекарств






О сайтеАккордыХит-парадПоискУроки ФорумыИщу песню
ПрограммыСвежачок-сПодпискаСтатьи
Яндекс.Метрика