Табулатура Black Sabbath | Danger Zone (4:25) гитара табулатуры уроки тексты песен Black Sabbath текст lyrics песня аккорды песни ноты нота электрогитара струна  
   А Б В Г Д Е Ж З И К Л М Н О П Р С Т У Ф Х Ч Ш Ы Э Ю Я       Разные песни
1-9 A B C D E F G H I J K L M N O P Q R S T U V W Y Z      Все исполнители in english

    



группа Black Sabbath, Табулатура песни Danger Zone (4:25)

Продолжаем грести бабос на ботах в Telegram.
Только в этот раз есть вариант автоматизировать это дело, привлекая рефералов. Вы можете заработать если »

Группа: Black Sabbath - другие аккорды (243),   о группе (21 статей),   диски (20),   фотографии (152)
Табулатура песни: Danger Zone (4:25)
Просмотров: 2137
Прислал: Sabbath (sabbath54@mail.ru)




    

from - Michael James 
Danger Zone
Black Sabbath - Seventh Star (1986)

|----------------------------------------------------------
|----------------------------------------------------------
|-----5-----2-----4--4-4---------------5-----2-----4-4-4---
|-----7-----3-----5--5-5---------------7-----3-----5-5-5---
|-0-0---0-0---0-0--------------5/6-0-0---0-0---0-0---------
|------------------------0-3/4-----------------------------
|----------------------------------------------------------
|----------------------------------------------------------
|---------------5-----2-----4--4-4---9-7-5--5-----5-----5--
|---------------7-----3-----5--5-5--10-9-7--7-----7-----7--
|-------5/6-0-0---0-0---0-0-------------------0-0---0-0----
|-0-3/4----------------------------------------------------
"all day long, im pushed and..."
|----------------------------------------------------------
|----------------------------------------------------------
|-----4-5-7-7-7-7-7-7-7-7----------------------------------
|-7-7-----7-7-7-7-7-7-7-7----------------------------------
|---------5-5-5-5-5-5-5-5---3~--2~------back to 1st riff---
|-----------------------------------3~---------------------
Backing for solo: at 2:30

Продолжаем грести бабос на ботах в Telegram.
Только в этот раз есть вариант автоматизировать это дело, привлекая рефералов. Вы можете заработать если »

|---------------------------------------------------------- |---------------------------------------------------------- |---------------------------------------------------------- |--7--7--7---5--7--9--10--7-------------------------------- |--5--5--5-0-3--5--7---8--5---3--3--5-5-5-5-5-5------------ |-----------------------------1--1--3-3-3-3-3-3------------ |---------------------------------------------------------- |---------------------------------------------------------- |---------------------------------------------------------- |-2-2-------------------------2-2-------------------------- |-0-0-------------0-2-3---2---0-0-------------0-2-3---2---- |-----3-2-3-222-3-------3---3-----3-2-3-222-3-------3---3-- "aint gonna fell no hurt..." |-------------------------------------------------||--------- |-------------------------------------------------||--------- |-------------------------------------------------||---5----- |-------------------------------------------------||-3-5-5-7- |-3-3-3-3-3-3-3-3-3-3-3-3-7-7-7-7-7-7-7-7-7-7-7-7-||-3-3-5-7- |-1-1-1-1-1-1-1-1-1-1-1-1-5-5-5-5-5-5-5-5-5-5-5-5-||-1---3-5-

www.rdrop.com/~mjames/sabbath/
искать в аптеке
список лекарств






О сайтеАккордыХит-парадПоискУроки ФорумыИщу песню
ПрограммыСвежачок-сПодпискаСтатьи
Яндекс.Метрика