Табулатура Black Sabbath | Seventh Star (5:21) гитара табулатуры уроки тексты песен Black Sabbath текст lyrics песня аккорды песни ноты нота электрогитара струна  
   А Б В Г Д Е Ж З И К Л М Н О П Р С Т У Ф Х Ч Ш Ы Э Ю Я       Разные песни
1-9 A B C D E F G H I J K L M N O P Q R S T U V W Y Z      Все исполнители in english

    



группа Black Sabbath, Табулатура песни Seventh Star (5:21)

Продолжаем грести бабос на ботах в Telegram.
Только в этот раз есть вариант автоматизировать это дело, привлекая рефералов. Вы можете заработать если »

Группа: Black Sabbath - другие аккорды (243),   о группе (21 статей),   диски (20),   фотографии (152)
Табулатура песни: Seventh Star (5:21)
Просмотров: 904
Прислал: Sabbath (sabbath54@mail.ru)




    
from - Michael James 
Seveth Star
Black Sabbath - Seventh Star (1986)

|------------------------------------------------------------
|------------------------------------------------------------
|---5-5---5-5-----2-2---------0-----0------------------------
|-0-----0-------0------0-2^p0----2^---3p2p0------------------
|-------------------------------------------3----------------
|------------------------------------------------------------
"hear the sound of"
|----------------------------------------------------------
|----------------------------------------------------------
|----------------------------------------------------------
|-12--------10--9------------------------------------------
|-10---------8--7-10---------------------------------------
|------------------8---------------------------------------
"the call of the 7th star.."
|----------------------------------------------------------
|----------------------------------------------------------
|-7--109--5--7-----7--9-10--9--5-7------------------------
|-7--109--5--7-----7--9-10--9--5-7-8--7-------------------
|-5---87--3--5-----5--7--8--7--3-5-8--7-------------------
|-----------------------------------6--5-------------------
Solo:
|----------------------------------------------------------
|----------------------------------------------------------
|-10p9h10h12-9h10p9-------9-10-12--------------------------
|-------------------12-------------------------------------
|---------------------------------12--10-8-10-10/12--------
|----------------------------------------------------------
|-------------13-------------12-^--------------------------
|------13-13^----13^-13p10----------13p10------------------
|-12^^--------------------12-------------12-10h12p10-9-----
|------------------------------------------------------12--
|----------------------------------------------------------
|----------------------------------------------------------
|----------------------------------------------------------
|----------------------------------------------------------
|-10-10----------------------------------------------------
|-------12p10--------10------------------------------------
|-------------12--10----1210-8-10-8----8-10/12------------

Продолжаем грести бабос на ботах в Telegram.
Только в этот раз есть вариант автоматизировать это дело, привлекая рефералов. Вы можете заработать если »

|------------------------------------10-------------------- |---------------------------------------------------------- |---------------------------------------------------------- |-10^-10--------------------------------------------------- |--------12-10-12-10------------------------------------10- |--------------------10-8-10h12p10p8-10h12p10p8-10h12p10--- |---------------------------------------------------------- |---------------------------------------------------------- |--------------------10-13^--13p10------------------------- |---------10-10h12p10--------------12---------------------- |-10h12p10------------------------------------------------- |---------------------------------------------------------- |----------------------------------------------------------end solo |----------------------------------|----------------------- |----------------------------------|----------------------- |---5-----5-------5----5---4-4-4-|----------------------- |---5-----5-------5----5---4-4-4-|----------------------- |-0-----0------0-0----0------------|----------------------- |----------------------------------|----------------------- | | |----------------------------------|----------------------- |----------------------------------|----------------------- |---4-5-7-7/9----------------------|----------------------- |-7--------------------------------|----------------------- |----------------------------------|----------------------- |----------------------------------|----------------------- |------------------------|--------------------------------- |------------------------|--------------------------------- |--6h7p6-------6h7p6-----|-6h7p6-----6h7p6----------------- |--------8-7---------8-7-|-------8-7-------7-7^^^---------- |------------------------|--------------------------------- |------------------------|--------------------------------- |-------3-------------------------------------------------- |-----3---3------------------------------------------------ |---3-------3---------------------------------------------- |-5-----------5--(0)-3-2----(back to verse)---------------- |------------------------3--------------------------------- |----------------------------------------------------------

www.rdrop.com/~mjames/sabbath/
лекарство в аптеке
список лекарств






О сайтеАккордыХит-парадПоискУроки ФорумыИщу песню
ПрограммыСвежачок-сПодпискаСтатьи
Яндекс.Метрика