Табулатура Black Sabbath | 1. In For The Kill (3:41) гитара табулатуры уроки тексты песен Black Sabbath текст lyrics песня аккорды песни ноты нота электрогитара струна  
   А Б В Г Д Е Ж З И К Л М Н О П Р С Т У Ф Х Ч Ш Ы Э Ю Я       Разные песни
1-9 A B C D E F G H I J K L M N O P Q R S T U V W Y Z      Все исполнители in english

    



группа Black Sabbath, Табулатура песни 1. In For The Kill (3:41)

Продолжаем грести бабос на ботах в Telegram.
Только в этот раз есть вариант автоматизировать это дело, привлекая рефералов. Вы можете заработать если »

Группа: Black Sabbath - другие аккорды (243),   о группе (21 статей),   диски (20),   фотографии (152)
Табулатура песни: 1. In For The Kill (3:41)
Просмотров: 1541
Прислал: Sabbath (sabbath54@mail.ru)




    
from - Michael James 
In For The Kill
Black Sabbath - Seventh Star (1986)
Fig A
|----------------------------------------------------------
|----------------------------------------------------------
|--------------------------------5-------7-------5--7------
|--------------------------------5-------7-------5--7------
|-0-0-0-0-0-0-0--0-0-0-0-0-0-0-0---0-0-0---0-0-0-----------
|----------------------------------------------------------
Fig B
"In for the kill, no quarter be shown"
|----------------------------------------------------------
|----------------------------------------------------------
|-----------------------------7-7-7-7-7-7-7----------------
|-------------------------4-5-7-7-7-7-7-7-7----------------
|-5-5-5-5-5-5-5---5-5-5-5-2-3-5-5-5-5-5-5-5----------------
|-3-3-3-3-3-3-3---3-3-3-3----------------------------------
"In for the kill..."

Продолжаем грести бабос на ботах в Telegram.
Только в этот раз есть вариант автоматизировать это дело, привлекая рефералов. Вы можете заработать если »

|-------------------------------------||------------------- |-------------------------------------||------------------- |-------------------------------------||------------------- |-5-5-5-5-5-5-5--9--12--7-7-7-7-7-7-7-||------------------- |-3-3-3-3-3-3-3--7--10--5-5-5-5-5-5-5-||-(back to Fig A)--- |-------------------------------------||------------------- "...for the kill..." Fgi C |---------------|--------------|--------------------------- |---------------|--------------|--------------------------- |---------------|--------------|-----7---12---5------------ |-5-5-5-5-5-5-5-|-4-4-4-4-4-4-4|-5---7---12---5---2-------- |-3-3-3-3-3-3-3-|-2-2-2-2-2-2-2|-5---5---10---3---2-------- |---------------|--------------|-3----------------0-------- Backing to solo: *B*for 16 bars === *E* for 8 bars

www.rdrop.com/~mjames/sabbath/
найти лекарство
список лекарств






О сайтеАккордыХит-парадПоискУроки ФорумыИщу песню
ПрограммыСвежачок-сПодпискаСтатьи
Яндекс.Метрика