Табулатура Black Sabbath | Keep It Warm гитара табулатуры уроки тексты песен Black Sabbath текст lyrics песня аккорды песни ноты нота электрогитара струна  
   А Б В Г Д Е Ж З И К Л М Н О П Р С Т У Ф Х Ч Ш Ы Э Ю Я       Разные песни
1-9 A B C D E F G H I J K L M N O P Q R S T U V W Y Z      Все исполнители in english

    



группа Black Sabbath, Табулатура песни Keep It Warm

Продолжаем грести бабос на ботах в Telegram.
Только в этот раз есть вариант автоматизировать это дело, привлекая рефералов. Вы можете заработать если »

Группа: Black Sabbath - другие аккорды (243),   о группе (21 статей),   диски (20),   фотографии (152)
Табулатура песни: Keep It Warm
Просмотров: 1015
Подобрал: Sabbath (sabbath54@mail.ru)




    

from - Michael James 
Keep It Warm
Black Sabbath - Born Again (1983)
|----------------------------------------------------------
|----------------------------------------------------------
|----------------------------------------------------------
|--4/5---------------5-7-----4/5---7------------5-7--------
|--2/3-----3p2p0-------------2/3---5--3p2p0----------------
|----------------5-5------------------------5-5------------
|---------0-------------0--------------3--------------------
|-------3---3---------1---1------------0--------------------
|-----2-------2-----0-------0-------------------------------
|--0--------------------------------0-------------------2---

Продолжаем грести бабос на ботах в Telegram.
Только в этот раз есть вариант автоматизировать это дело, привлекая рефералов. Вы можете заработать если »

|----------------3----------------2---------3--0-3--0-3----- |------------------------------3---------------------------- |---------------------|------------------------------------ |---------------------|------------------------------------ |---------------------|------------------------------------ |--5---4---2------2---|--4/5-------------5-7--------------- |--3---2---0------0---|--2/3---3p2p0----------------------- |--------------3^-----|--------------5-5-------------------

www.rdrop.com/~mjames/sabbath/
лекарство в аптеке
список лекарств

Тентовый материал цена за метр

Полезные материалы по ремонту, обкатке, обслуживанию техники

ias.ua

Емкости

Производим емкости и резервуары! Предложение в течение часа! Звоните

нефть-рус.рф








О сайтеАккордыХит-парадПоискУроки ФорумыИщу песню
ПрограммыСвежачок-сПодпискаСтатьи
Яндекс.Метрика