Табулатура Black Sabbath | Hot Line гитара табулатуры уроки тексты песен Black Sabbath текст lyrics песня аккорды песни ноты нота электрогитара струна  
   А Б В Г Д Е Ж З И К Л М Н О П Р С Т У Ф Х Ч Ш Ы Э Ю Я       Разные песни
1-9 A B C D E F G H I J K L M N O P Q R S T U V W Y Z      Все исполнители in english

    



группа Black Sabbath, Табулатура песни Hot Line

Продолжаем грести бабос на ботах в Telegram.
Только в этот раз есть вариант автоматизировать это дело, привлекая рефералов. Вы можете заработать если »

Группа: Black Sabbath - другие аккорды (243),   о группе (21 статей),   диски (20),   фотографии (152)
Табулатура песни: Hot Line
Просмотров: 1372
Прислал: Sabbath (sabbath54@mail.ru)




    

from - Michael James 
Hot Line
Black Sabbath - Born Again (1983)

|--------------------------------------------
|--------------------------------------------
|-------3-5-3-5-3-5p3-------3-5-3-5p3-5-3----
|-3/5-5-3-5-3-5-3-5p3-3/5-5-3-5-3-5p3-5-3----
|-3/5-5---------------3/5-5------------------
|-1/3-3---------------1/3-3------------------
|--------------------------------------------
|--------------------------------------------
|--------3-5-3-5-3-5p3-------3-5-3-65-3-----
|----5-5-3-5-3-5-3-5p3-3/5-5-3-5-3-65-3-5---
|----5-5---------------3/5-5-------------5---
|1-2-3-5---------------1/3-3-------------3---
"when will you show me..."
|----------------------------------------------------------
|---------------------------------3---6----8---10----------
|---------------------------------5^--8^--10^--12^---------
|-6--------6--8--10-----8--6--5----------------------------
|-6--------6--8--10-----8--6--5----------------------------
|-4--------4--6---8-----6--4--3----------------------------
"when will you throw me a line"
|----------------------------------------------------------
|----------------------------------------------------------
|----------------------------------------------5-----------
|-6--------6--8--10-----8--6--8----------------5-----------
|-6--------6--8--10-----8--6--8----------------3-----------
|-4--------4--6---8-----6--4--6------------------back to 1st riff
Solo:
|----------------------------------------------------------
|----------------------------------------------------------

Продолжаем грести бабос на ботах в Telegram.
Только в этот раз есть вариант автоматизировать это дело, привлекая рефералов. Вы можете заработать если »

|-------------------------------------8^-8^-8^------------- |--------------------8p7----8-10^-^ ^----------8----------- |-10--8--8h10---8-10-----10----------------------10-------- |---------------------------------------------------------- |---------------------------------------------------------- |---------------------------------------------------------- |----10^--^10-7-75---------------------------------------- |-/12---------------8-10-8-10^-10--------8-10h12p108------ |---------------------------------10--10--------------10--- |---------------------------------------------------------- |---------------------------------------------------------- |---------------------------------------------------------- |--------------------------/7------------------------------ |-10h12p108----10h12p108----8-10^-^10p8------------------ |------------10---------------------------10--------------- |---------------------------------------------------------- |----------------------------------------------------------- |-------------------------------14-14p12-12-12-12p10-10----- |-------------------------------14-14p13-12-12-12p11-11----- |-3---5-55555555555--3---5---7--14-14p14-12-12-12p12-12-7-7- |-3---5-55555555555--3---5---7--------------------------7-7- |-1---3-33333333333--1---3---5--------------------------5-5- |--------------------------- |--------------------------- |-------------------5--3---- |-----5-------------5--3---- |---7----------5----3--1---- |-8------7--5---------------

www.rdrop.com/~mjames/sabbath/
искать в аптеке
список лекарств






О сайтеАккордыХит-парадПоискУроки ФорумыИщу песню
ПрограммыСвежачок-сПодпискаСтатьи
Яндекс.Метрика