Басовая табулатура Black Sabbath | Spiral Architect гитара табулатуры уроки тексты песен Black Sabbath текст lyrics песня аккорды песни ноты нота электрогитара струна  
   А Б В Г Д Е Ж З И К Л М Н О П Р С Т У Ф Х Ч Ш Ы Э Ю Я       Разные песни
1-9 A B C D E F G H I J K L M N O P Q R S T U V W Y Z      Все исполнители in english

    



группа Black Sabbath, Басовая табулатура песни Spiral Architect

Продолжаем грести бабос на ботах в Telegram.
Только в этот раз есть вариант автоматизировать это дело, привлекая рефералов. Вы можете заработать если »

Группа: Black Sabbath - другие аккорды (243),   о группе (21 статей),   диски (20),   фотографии (152)
Басовая табулатура песни: Spiral Architect
Просмотров: 1473
Прислал: Sabbath (sabbath54@mail.ru)




    
From - Michael James 
Spiral Architect - Bass
Black Sabbath - Sabbath, Bloody Sabbath (1974)

|----------------------------------------------------------
|----------------------------------------------------------
|-0--5-------0--5--5-5-5-5--5--5--5--5---------------------
|----------------------------------------------------------
|---------------------------------------------------------
|---------------------------------------------------------
|----8----7h8-8-8p7---8p7---------------------------------
|-8-----6-----------8-----8-10--10-10-10-10--10-10--10-10-
"supersttiou century...."
|---------7-------------------------7---7----------------
|-------7---7---------------------7---7---7--------------
|--5--5------------7---7-3--2--5------------------------
|--------------5-5---8-----------------------------------
"Of all the things i value..."

Продолжаем грести бабос на ботах в Telegram.
Только в этот раз есть вариант автоматизировать это дело, привлекая рефералов. Вы можете заработать если »

|----------7--7-7--7h9-7--7----7----7----7----------------- |--------7-------------------7---7-----7------------------- |-5--5-5--------------------------------------------------- |---------------------------------------------------------- |----------7--7-7--7h9-7--7----7----7/9-7------------------ |--------7-------------------7---7--------7--------------- |-5--5-5--------------------------------------------------- |---------------------------------------------------------- Ending, during applause: |------7--7-7---7h9-7--7-7----7------------7--7-7--7h9-7--- |----7----------------------7---7--------7----------------- |-5-------------------------------5--5-5------------and so on |----------------------------------------------------------

www.rdrop.com/~mjames/sabbath/
лекарство в аптеке
список лекарств






О сайтеАккордыХит-парадПоискУроки ФорумыИщу песню
ПрограммыСвежачок-сПодпискаСтатьи
Яндекс.Метрика