Басовая табулатура Black Sabbath | Killing Yourself To Live гитара табулатуры уроки тексты песен Black Sabbath текст lyrics песня аккорды песни ноты нота электрогитара струна  
   А Б В Г Д Е Ж З И К Л М Н О П Р С Т У Ф Х Ч Ш Ы Э Ю Я       Разные песни
1-9 A B C D E F G H I J K L M N O P Q R S T U V W Y Z      Все исполнители in english

    



группа Black Sabbath, Басовая табулатура песни Killing Yourself To Live

Продолжаем грести бабос на ботах в Telegram.
Только в этот раз есть вариант автоматизировать это дело, привлекая рефералов. Вы можете заработать если »

Группа: Black Sabbath - другие аккорды (243),   о группе (21 статей),   диски (20),   фотографии (152)
Басовая табулатура песни: Killing Yourself To Live
Просмотров: 1392
Прислал: Sabbath (sabbath54@mail.ru)




    

From - ktulukid@aol.com
Killing Yourself to Live - Bass
Black Sabbath - Sabbath, Bloody Sabbath (1973)
        tune down 1 1/2 steps low to high (C# F# B E)
        Intro 2x
        ||-----------5-6-------------5------------------------5---
        ||--------7------5-7--7----5---5-----------7--7-7---5---5-
        ||-----------------------7-------5--5-7--7--------7-------
        ||-----5--------------------------------------------------
                                                      vocal riff
        -------5-6-------------5--------------------||---------7/9
        ----7------5-7--7----5---5-----------7--7-7-||------------
        -------------------7-------5--5-7--7--------||-5/75-5----
        -5------------------------------------------||------------
                                        
        7---7----------------------7/97---7---------------||----
        -------------5-7-3--------------------------5-7-3---||----
        ---5---5/75--------5/75-5-------5---5/75---------||----
        ----------------------------------------------------||-10-
        Killing your self to live___________
        ----------------------------------------------------------
        ---------------------------------------------8-8-8-8-7-7-7
        -------------------------8-8------------------------------
        10-10-10-10--10-8-8-8-8-----8-7-7-7-7-7-7--------------
        ---||-----------------------------------------------------
        -7-||-----------------------------------------------------

Продолжаем грести бабос на ботах в Telegram.
Только в этот раз есть вариант автоматизировать это дело, привлекая рефералов. Вы можете заработать если »

---||-0-----0---0---0---0----0-0-0-0-0-0-0-0-0-0-0-0-0-0-0 ---||----------------------------------------------------- hold this for a long time ----------|----------------------------------------------- ----------|5h7-7-7-7-5h7-7-7-7-5h7-7-7-7-5h7-7-5---5h7-7-7 0-0-0-0-0-|--------------------------------------7-------- ----------|----------------------------------------------- ---------------------------------||------7--7-5h6p5------- -7-5h7-7-7-7-5h7-7-7-7-5h7-7-5---||-7--7------------7-7--7 -------------------------------7-||----------------------- ---------------------------------||----------------------- sometmes ending w/ this 2nd solo -7--7-5h6p5-|--------------------7--7-5h6p5------||------- ------------|-5------5------7--7------------7-7--||------- ------------|------------------------------------||---5-3- ------------|----8------8------------------------||-5----- & vocal riff outro --------------||----------------------------------------|| --------------||----------------------------------------|| -0------5-3-0-||-5--5--------------5--5-------------5--5|| ---5--5-------||----------------------------------------|| look out, the main riff is a little tricky

www.rdrop.com/~mjames/sabbath/
поиск лекарств
список лекарств






О сайтеАккордыХит-парадПоискУроки ФорумыИщу песню
ПрограммыСвежачок-сПодпискаСтатьи
Яндекс.Метрика