Басовая табулатура Black Sabbath | Sabbra Cadabra гитара табулатуры уроки тексты песен Black Sabbath текст lyrics песня аккорды песни ноты нота электрогитара струна  
   А Б В Г Д Е Ж З И К Л М Н О П Р С Т У Ф Х Ч Ш Ы Э Ю Я       Разные песни
1-9 A B C D E F G H I J K L M N O P Q R S T U V W Y Z      Все исполнители in english

    



группа Black Sabbath, Басовая табулатура песни Sabbra Cadabra

Продолжаем грести бабос на ботах в Telegram.
Только в этот раз есть вариант автоматизировать это дело, привлекая рефералов. Вы можете заработать если »

Группа: Black Sabbath - другие аккорды (243),   о группе (21 статей),   диски (20),   фотографии (152)
Басовая табулатура песни: Sabbra Cadabra
Просмотров: 1419
Прислал: Sabbath (sabbath54@mail.ru)




    

from - KtuluKid@aol.com
Sabbra Cadabra - Bass
Black Sabbath - Sabbath, Bloody Sabbath (1974)
          Tune down 1 1/2 steps low to high (C# F# B E)
          Intro
          ||--------------------------------------------------------
          ||-------5------------------------------------------------
          ||---5h7---7-7-7-7-7-7-7-7-7-7-7-7-5-5-5-5-5-5-5-5-5-5-5-5
          ||-7------------------------------------------------------
          ----------------------------------------------------------
          ----------------------------------------------------------
          -4-4-4-4-4-4-4-4-4-4-4-4-3-3-3-3-3-3-3-3-3-3-3-7-7-7-7-7-7
          ----------------------------------------------------------
          ----------------------------------------------------------
          ----------------------------------------------------------
          -7-9-9-9-9-9-9-9-10-10-10-10-10-10-10-12-12-12-12-12-12-12
          ----------------------------------------------------------
          ----------------------------------------------------------
          ----------------------------------------------------------
          -7-7-7-7-7-7-7-9-9-9-9-9-9-9-10-10-10-10-10-10-10-12-12-12
          ----------------------------------------------------------
                         main riff w/out vocals
          -------------||-------------------------------------------
          -------------||------------------------------------5------
          -12-12-12-12-||-5h7-7--7-7-7-5h7-7--7-7-7--5-4-5-4---5h7-7
          -------------||-------------------------------------------
                                                    Feel good,well I
          ----------------------------------------|-----------------
          ---------------------------5------------|-----------------
          -7-7-5h7-7--7-7-7--5-4-5-4---5h7-7--7-7-|-5h7-7--7-7-7-5h7
          ----------------------------------------|-----------------
          feel just fine...
          --------------------------------------------------------||
          --------------------------------------------------------||

Продолжаем грести бабос на ботах в Telegram.
Только в этот раз есть вариант автоматизировать это дело, привлекая рефералов. Вы можете заработать если »

7--7-7-7--5--5-5--5-5--5-5--5-5h7-7--7-7-7-5h7-7--7-7-7-|| --------------------------------------------------------|| Someone to love me... ---------------------------------7h9-7-------------------- ----7---7-7-5h7-5h7-5-------------------9-7-5------------- ----------------------7----6-7-9--------------5h7-7--7-7-7 -5----5------------------7-------------------------------- Middle section -||------------------------------------------------------- -||------------------------------------------------------5 -||----5-6-7-7-7----------5-6-7---7----------5-6-7-7-7-- -||--7-------------------7-------0-----------7------------ just groove it ---------------------------------------------------------- -----------------------------------------7-5-------------- -7-6-5---5-6-7-7-7------------5-6-7-7-7-----7-5---5-6-7-7 -------7---------------------7-------------------7-------- Walking bass part ------||----------------------6-7-8-------------------|--- ------||--------------6-7-8-9-------9-7---7b(9)-9-7---|--- -7---||------6-7-8-9-------------------9-----------9-|-7- ------||-8--8-----------------------------------------|--- groove aroung with these notes some till the end. ----------------------------------------------------|| ---------------7-7b(9)-7-5-------------7-7b(9)-7-5--|| -7-7-7-7-5-7-7-------------7-7-7-5------------------|| -----------------------------------7-5--------------||

www.rdrop.com/~mjames/sabbath/
лекарство в аптеке
список лекарств

SMART BABY WATCH Q80

Купить Medisana! Smart Baby Monitor Medisana. Видеоняни

smartbabywatch-q80rus.ru








О сайтеАккордыХит-парадПоискУроки ФорумыИщу песню
ПрограммыСвежачок-сПодпискаСтатьи
Яндекс.Метрика