Басовая табулатура Black Sabbath | A National Acrobat гитара табулатуры уроки тексты песен Black Sabbath текст lyrics песня аккорды песни ноты нота электрогитара струна  
   А Б В Г Д Е Ж З И К Л М Н О П Р С Т У Ф Х Ч Ш Ы Э Ю Я       Разные песни
1-9 A B C D E F G H I J K L M N O P Q R S T U V W Y Z      Все исполнители in english

    



группа Black Sabbath, Басовая табулатура песни A National Acrobat

Работа в Европе для граждан РФ, Украины, СНГ

  • минимальная зарплата $500.
  • виза и контракт на полгода, возможно продление
  • проживание оплачивает работодатель
  • нужен только загранпаспорт
  • оформление 190 €
  • данное предложение - отличная возможность эмигрировать в Европу и закрепиться здесь навсегда.

  • Мы свяжемся с Вами по WhatsApp или Viber и ответим на любые вопросы.
    на нашем сайте можно почитать подробнее »

    Группа: Black Sabbath - другие аккорды (243),   о группе (21 статей),   диски (20),   фотографии (152)
    Басовая табулатура песни: A National Acrobat
    Просмотров: 1159
    Прислал: Sabbath (sabbath54@mail.ru)




        
    From - KtuluKid@aol.com
    A National Acrobat - Bass
    Black Sabbath - Sabbath, Bloody Sabbath (1974)
    
    Tune-down 1 1/2 steps low to high(C# F# B E)
            ||------------------------------------------------------------
            ||--------------------------------------7h9p7-----------------
            ||-5h7-7-7--7-5h7-5h7-10-9--9-5h7-7-7-5-------5---5---5-5h7-7-
            ||----------------------------------------------7---7---------
                                                               I am the 
            -------------------------------------------------||-----------
            --------------------------------7h9p7------------||-2---2-5---
            -7--7-5h7-5h7-10-9--9-5h7-7-7-5-------5---5---5--||-----------
            ----------------------------------------7---7----||-----------
            world that hides...     Destruction of the empty...        You 
            -------------------7-9-|-----------------------------||-------
            5-------7------7-9-----|---------------5----5-7----7-||-------
            --5---5----5/7---------|-3----3-2----2----5------7---||---5h7-
            -----------------------|----3------2-----------------||-7-----
            gotta believe me                                 I'm talkin to
            ---------------------------------------|----------------------
            ------------5--------------------------|----------------------
            ----5h7-5h7---7-5---5h7----------------|-------5h7-----5h7-5h7
            --7---------------7--------------------|-5-6-7-------7--------
            you...                          4x
            ------------------------------||----------------------------||
            -5----------------------------||-------------87---7-5---5--||
            ---7-5---5h7------------------||-7---7-5---5----------------||
            -------7----------------------||----------------------------||
                                        2x
            ---------------------------|----------------------------------
            ---------------------------|----------------------------------
            ---------------------------|-5h7-7-7-7-7-7-7-5h7-7-7-7-7-7-7-5
            -7-7-7-7-7-7-7-7-7-7-7-7-7-|----------------------------------
    
            --------------------------------------------------------------
            -------------------------------5h7-7-7-7-7-7-7-5h7-7-7-7-7-7-7
            h7-7-7-7-7-7-7-5h7-7-7-7-7-7-7--------------------------------
            --------------------------------------------------------------
                                               2x
            ---------------------------------||---------------------------
    
    Узнай ВСЕ о своем друге в ВК или FB
    -5h7-7-7-7-7-7-7-5h7-7-7-7-7-7-7-||-7h9--9-7h9-7-------------- ---------------------------------||--------------9-7-5--5-5--5 ---------------------------------||--------------------------- ------------------------------------|------------------------- -----7h9--9-7h9-7-------------------|------------------------- -4-5--------------9-7-5--5-5--5-4-5-|------------------------- ------------------------------------|--7--------------7-7--- -------------------------------------------------------------- -------------------------------------------------------------- -------------------------------------------------------------- -----7-7----------7-7----------7-------------7----------7 2x --------------------------|----------------------------------- --------------------------|-7-7-7-7-7-7----------------------- --------------------------|-------------5-5-5-5-5-5/7--7-7-7-7 -----------7-------------|----------------------------------- ------------------------------------------------|------------- -------7-7-7-7-7-7------------------------------|------------- -7-7/9-------------5-5-5-5-5-5/7--7-7-7-7-7-7/9-|-5--4--5--4-- ------------------------------------------------|------------- -----------------------------||------------------------------- -----------------------------||------------------------------- 5--4--5--4--5--4--5--4--5--4-||-2-2-3-3-4-4-5-5-6-6-7-7-8-8-9- -----------------------------||------------------------------- ------------------||h=hammer-on p=pull-off ------------------||/=slide up =slide down -9-10-10-11-11-12-|| ------------------||

    www.rdrop.com/~mjames/sabbath/
    поиск лекарств
    список лекарств






    О сайтеАккордыХит-парадПоискУроки ФорумыИщу песню
    ПрограммыСвежачок-сПодпискаСтатьи
    Яндекс.Метрика