Басовая табулатура Black Sabbath | Under The Sun / Every Day Comes And Goes гитара табулатуры уроки тексты песен Black Sabbath текст lyrics песня аккорды песни ноты нота электрогитара струна  
   А Б В Г Д Е Ж З И К Л М Н О П Р С Т У Ф Х Ч Ш Ы Э Ю Я       Разные песни
1-9 A B C D E F G H I J K L M N O P Q R S T U V W Y Z      Все исполнители in english

    



группа Black Sabbath, Басовая табулатура песни Under The Sun / Every Day Comes And Goes

Продолжаем грести бабос на ботах в Telegram.
Только в этот раз есть вариант автоматизировать это дело, привлекая рефералов. Вы можете заработать если »

Группа: Black Sabbath - другие аккорды (243),   о группе (21 статей),   диски (20),   фотографии (152)
Басовая табулатура песни: Under The Sun / Every Day Comes And Goes
Просмотров: 1147
Прислал: Sabbath (sabbath54@mail.ru)




    
from - KtuluKid@aol.com
Under The Sun - Bass
Black Sabbath - Volume 4 (1972)

tune down 1 12 steps (C# F# B E)
        Intro                                           Well I don't
      ||-----------------------------------------------||-----------
      ||-----------------------------------------------||-----------
      ||----------2--1---1-1--5--4---4-4--4-3--3-2--2--||-7--7-9--9-
      ||-0---0-0---------------------------------------||-----------
      want no demon... Every day just comes and... People riding               
      ---------------||---------------------------|-----------------
      ---------------||-5h7--5h7--5h7---5h7--5-5--|-7h9--7h9--7h9---
      -10p9p7-7-9p7--||---------------------------|-----------------
      ---------------||---------------------------|-----------------
      their... 
      -----------|-------------------------------|-----------------

Продолжаем грести бабос на ботах в Telegram.
Только в этот раз есть вариант автоматизировать это дело, привлекая рефералов. Вы можете заработать если »

-7h9--7-7--|-9h11--9h11--9h11---9h11--9-9--|-10h12--10h12--10 -----------|-------------------------------|----------------- -----------|-------------------------------|----------------- Outro --------------------||--------------------------------------- h12---10h12--10-10--||-9--------------9-----------------9---- --------------------||---10-9-7--7--7---10-9--------------10- --------------------||-----------------------10--10--10------ -----------------------------||------||h=hammer-on -----------------------------||------||p=pull-off -9---------------------------||--7--||=slide down ---8--8--8-8-8h10-8-7--7--7--||------||

www.rdrop.com/~mjames/sabbath/
искать в аптеке
список лекарств

Тюнинг хайлендер

Краткое содержание свежего выпуска. Схема проезда.

agstuning.ru








О сайтеАккордыХит-парадПоискУроки ФорумыИщу песню
ПрограммыСвежачок-сПодпискаСтатьи
Яндекс.Метрика