Басовая табулатура Black Sabbath | Supernaut гитара табулатуры уроки тексты песен Black Sabbath текст lyrics песня аккорды песни ноты нота электрогитара струна  
   А Б В Г Д Е Ж З И К Л М Н О П Р С Т У Ф Х Ч Ш Ы Э Ю Я       Разные песни
1-9 A B C D E F G H I J K L M N O P Q R S T U V W Y Z      Все исполнители in english

    



группа Black Sabbath, Басовая табулатура песни Supernaut

Продолжаем грести бабос на ботах в Telegram.
Только в этот раз есть вариант автоматизировать это дело, привлекая рефералов. Вы можете заработать если »

Группа: Black Sabbath - другие аккорды (243),   о группе (21 статей),   диски (20),   фотографии (152)
Басовая табулатура песни: Supernaut
Просмотров: 1079
Прислал: Sabbath (sabbath54@mail.ru)




    
from - KtuluKid@aol.com
Supernaut - Bass
Black Sabbath - Volume 4 (1972)

Tune-down 1 1/2 steps low to high (C# F# B E)
       Main Riff
     ||---------------------------------------------------------------
     ||---/14--------------------------------------------7-----------
     ||----------5/7--75--0--5-7-7----5/7--75-----5h7-5----5/7--75-
     ||------------------------------------------7--------------------
                                     I want to reach out and touch the
     ------------------------------||----------------------7---7------
     --------/5-7------------------||------------------------7---7----
     ----5-7------7-7-5------------||-7---7-7-/15--/17-------------5-5
     --7----------------7-5-3-5-3--||-------------0----0-0------------
     sky...Geezer does alot of stuff(again)so groove around this
     --7-7------------------------/7--7-----7-7-7-7-9-7-----||--------
     -------------------------------------7-----------------||--------
     ------5-5--7--7-/15--/17-----------5---------------5---||-7-7----

Продолжаем грести бабос на ботах в Telegram.
Только в этот раз есть вариант автоматизировать это дело, привлекая рефералов. Вы можете заработать если »

--------------------0----0-0---------------------------||-------- When bass follows drums. Drum groove Guitar and bass back ----------------------------||-----------||-9--9-7---7-7-7-7-7--- ------------------------12-||-----------||--------7------------- -7-7------7-7-------7-7-----||-----------||--------------------5- ----------------------------||-----------||---------------------- ------7-9---------------------9p7--7-7---7-77h9p7-7------||------ ---------------------------------------7------------7----||------ -5-5-------7--7-/15--/17------------------------------5--||------ --------------------0----0-0-----------------------------||------ For the solos do the main riff...have some fun with this song, there's alot of room to fill in the song so just bust out some killer fills. /=slide up =slide down h=hammer-on p=pulloff

www.rdrop.com/~mjames/sabbath/
лекарство в аптеке
список лекарств

хлебопечка Delonghi bdm 125s

bdm-agro.ru








О сайтеАккордыХит-парадПоискУроки ФорумыИщу песню
ПрограммыСвежачок-сПодпискаСтатьи
Яндекс.Метрика