Басовая табулатура Black Sabbath | Into The Void гитара табулатуры уроки тексты песен Black Sabbath текст lyrics песня аккорды песни ноты нота электрогитара струна  
   А Б В Г Д Е Ж З И К Л М Н О П Р С Т У Ф Х Ч Ш Ы Э Ю Я       Разные песни
1-9 A B C D E F G H I J K L M N O P Q R S T U V W Y Z      Все исполнители in english

    



группа Black Sabbath, Басовая табулатура песни Into The Void

Продолжаем грести бабос на ботах в Telegram.
Только в этот раз есть вариант автоматизировать это дело, привлекая рефералов. Вы можете заработать если »

Группа: Black Sabbath - другие аккорды (243),   о группе (21 статей),   диски (20),   фотографии (152)
Басовая табулатура песни: Into The Void
Просмотров: 1234
Прислал: Sabbath (sabbath54@mail.ru)




    

from - Michael James 
Into The Void - Bass
Black Sabbath - Master Of Reality (1971)

|----------------------------9----9---9---9---9-------------
|-----------2----1----0--8-7---7----7---7---7---75---------
|-----0-1-2----2----2---------------------------------------
|-0-3-------------------------------------------------------

|------------9----8----7------9-----9---9---9---9----------
|------7-8-9----9----9---8--7---7-----7---7---7---75-------
|-7-10------------------------------------------------------
|-----------------------------------------------------------

|-----------------------------------------------------------
|-------------------0-97-5~--------------0-9-5-------------
|-7-7-7-7-7--5--5-5----------7-7-7-7-7--5-------7-5---------
|---0-0-0-0--------------------0-0-0-0--------------7-------

|-----------------------------------------------------------
|-------------------0-97-5---------------------------------
|-7-7-7-7-7--5--5-5-----------------------------------------
|---0-0-0-0------------------8-8-8-8-8-10-7-----------------

Продолжаем грести бабос на ботах в Telegram.
Только в этот раз есть вариант автоматизировать это дело, привлекая рефералов. Вы можете заработать если »

|----------------------------------------------------------- |-----------------------------------------------------7^---- |-7--7-7-5h7-5-5h7-5h7-7-5~---5h7-7-7-5h7-5-5h7-5h7-7------- |----------------------------------------------------------- |-9--8~~-7-------------- |-----------9--8--7----- |----------------------- |----------------------- double time |----------------------------------------------------------- |--------------8--8-7---------------------8--8-7------------ |-7-7-10(10)p7--------10^-7--7-7-10(10)p7--------10^-7------ |----------------------------------------------------------- end 2x time |----------------------------------------------------------- |---------------------5---------------------------5--------- |--7-6-5-------5--6-7---7~~----7-6-5-------5--6-7---7~~----- |--------7~~-------------------------7~~--------------------

www.rdrop.com/~mjames/sabbath/
лекарство в аптеке
список лекарств






О сайтеАккордыХит-парадПоискУроки ФорумыИщу песню
ПрограммыСвежачок-сПодпискаСтатьи
Яндекс.Метрика