Басовая табулатура Black Sabbath | Lord Of This World гитара табулатуры уроки тексты песен Black Sabbath текст lyrics песня аккорды песни ноты нота электрогитара струна  
   А Б В Г Д Е Ж З И К Л М Н О П Р С Т У Ф Х Ч Ш Ы Э Ю Я       Разные песни
1-9 A B C D E F G H I J K L M N O P Q R S T U V W Y Z      Все исполнители in english

    



группа Black Sabbath, Басовая табулатура песни Lord Of This World

Продолжаем грести бабос на ботах в Telegram.
Только в этот раз есть вариант автоматизировать это дело, привлекая рефералов. Вы можете заработать если »

Группа: Black Sabbath - другие аккорды (243),   о группе (21 статей),   диски (20),   фотографии (152)
Басовая табулатура песни: Lord Of This World
Просмотров: 1444
Прислал: Sabbath (sabbath54@mail.ru)




    
From - Michael James 
Lord Of This World - Bass
Black Sabbath - Master Of Reality (1971)
tune down
|--------------------------------------
|--------------------------------------
|-7--7-7-5---4---5-/7-----------------
|---------------------/7---6---7--7----

time the pauses for this part
|---------------------------------------------------------
|-----------------------5---------------------------------
|-7----5h7---5h7----5h7---7--5h7-----5h7---5h7------5--6--
|------------------------------------------------7--------

|---------------------------------------------------
|---------------7-5---------------------------------
|-------------7-----7---5h7-------------------------
|--7---6---5----------------------------------------

|------------------------------------------------------
|-----------------9h11-9--97--------------------------
|--7-8-9p7---7----------------7------------------------
|----------9-------------------------------------------

w/solo

Продолжаем грести бабос на ботах в Telegram.
Только в этот раз есть вариант автоматизировать это дело, привлекая рефералов. Вы можете заработать если »

|-------9----9-9-9------------------------------------------ |-----9------------9---------------------------------------- |-7------------------7-----3-3-3-3-3---3-3--5-5-5-5-5--5-5-- |----------------------------------------------------------- |-----9---------9-----9-------------5--------7-----7------ |---9---------9-----9-------------5--------7-----7-------- |-7------7--------7---------3-3-3------5-------5---------- |--------------------------------------------------------- you can vary between these two solo bass lines. |---------------------------------------------------------- |-----9-9-9----------7-7-7---------9-9-9------------------- |---9--------------7-------------9-------------7----------- |-7--------------5-------------7-------------5---5-5-5----- |-----9---------9-----9-------------5--------7----------- |---9---------9-----9-------------5--------7------------- |-7------7--------7---------3-3-3------5-------10-9------ |--------------------------------------------------------

www.rdrop.com/~mjames/sabbath/
найти лекарство
список лекарств






О сайтеАккордыХит-парадПоискУроки ФорумыИщу песню
ПрограммыСвежачок-сПодпискаСтатьи
Яндекс.Метрика