Табулатура Black Sabbath | Sleeping Village гитара табулатуры уроки тексты песен Black Sabbath текст lyrics песня аккорды песни ноты нота электрогитара струна  
   А Б В Г Д Е Ж З И К Л М Н О П Р С Т У Ф Х Ч Ш Ы Э Ю Я       Разные песни
1-9 A B C D E F G H I J K L M N O P Q R S T U V W Y Z      Все исполнители in english

    



группа Black Sabbath, Табулатура песни Sleeping Village

Работа в Европе для граждан РФ, Украины, СНГ

  • минимальная зарплата $500.
  • виза и контракт на полгода, возможно продление
  • проживание оплачивает работодатель
  • нужен только загранпаспорт
  • оформление 190 €
  • данное предложение - отличная возможность эмигрировать в Европу и закрепиться здесь навсегда.

  • Мы свяжемся с Вами по WhatsApp или Viber и ответим на любые вопросы.
    на нашем сайте можно почитать подробнее »

    Группа: Black Sabbath - другие аккорды (243),   о группе (21 статей),   диски (20),   фотографии (152)
    Табулатура песни: Sleeping Village
    Просмотров: 1176
    Прислал: Sabbath (sabbath54@mail.ru)




        
    
    from - Michael James 
    Sleeping Village/
    A Bit Of Finger/
    The Warning
    Black Sabbath - Black Sabbath (1970)
    
    |-----------------------------------------------0--------
    |--------------------------------------------0-----------
    |-----------------0-----------------------0--------------
    |--------4-----4-----4-----------4-----4-----------------
    |-----7-----7-----------7-----7-----7--------------------
    |--0-----------------------0-----------------------------
    |-----------------------------|--------------------------
    |-----------------------------|--------------------------
    |--------------------------/9-|--------------------------
    |----------7-----7-9p7---7----|---------7-----7-9^-7-----
    |------------7/9-------9------|-----------7/9------------
    |--3/5-3/5--------------------|-3/5-3/5------------------
    |------------------------|---------------------------------
    |------------------------|---------------------------------
    |------------------------|---------------------------------
    |-----7--5--4h5p4--------|-----7--5--4h5p4-----------------
    |--0---------------5-/-7-|--0--------------5/7-------------
    |------------------------|---------------------------------
    |---------------------------|----------------------------
    |---------------------------|----------------------------
    |---------------------------|--10~~~~--------------------
    |--12-------7-------10------|----------12----------------
    |--12-------7-------10------|----------------------------
    |--10-------5--------8------|----------------------------
    Solo: #1
    |----------------|---------------|----10----10------10----------
    |----------------|---------------|----------------10---13-13^---
    |----------------|----------10~~-|-12^---12^---12^--------------
    |--12p10---10-12-|-12p10h12------|------------------------------
    |-------12-------|---------------|------------------------------
    |----------------|---------------|------------------------------
    |-10------------|-----10--|-----13^-13-|-101310------10-|-------10----
    |---13-101210---|-10------|--10--------|-------13-13^---|-13^~-----13-
    |------------12-|---------|------------|----------------|-------------
    |---------------|---------|------------|----------------|-------------
    |---------------|---------|------------|----------------|-------------
    |---------------|---------|------------|----------------|-------------
    |-----------------|---------------------|---------------|-----------------
    |-101210-------10-|-13p10---------------|---------------|-----------------
    |-------12-12^----|------12p10-12p10----|---------------|-10--------------
    |-----------------|------------------12-|-12p10---10-12-|----12-12p10-----
    |-----------------|---------------------|------12-------|-------------12--
    |-----------------|---------------------|---------------|-----------------
    |--------------|-------------------|----------------|--------------
    |--------------|-------------------|----------------|--------------
    |--------------|-------------------|-10-10----------|-------10-10--
    |-----12p10----|-12p10----12p10----|-------12p10----|-10h12--------
    |-----------12-|-------12-------12-|-------------12-|--------------
    |--------------|-------------------|----------------|--------------
    |------------|-------------------|------------------|-----------------
    |---------10-|-13p10----13p10----|-13p10---13p10----|-13p10-10-10-10--
    |-----12^----|------12^------12^-|------12^-----12^-|-----------------
    |------------|-------------------|------------------|-----------------
    |------------|-------------------|------------------|-----------------
    |------------|-------------------|------------------|-----------------
    |------------------|-------10----|----------|-----13^-13-|
    |--13p10-----------|----------10-|-13-13^---|--10--------|
    |-------12-12p10---|-12^---------|----------|------------|
    |---------------12-|-------------|----------|------------|
    |------------------|-------------|----------|------------|
    |------------------|-------------|----------|------------|
    |-10h13p10-------10-|--------10----|------------------|---------------|
    |---------13-13^----|-13^~~-----13-|-12p10------------|---------------|
    |-------------------|--------------|------12--12p10---|---------------|
    |-------------------|--------------|---------------12-|-12p10---------|
    |-------------------|--------------|------------------|------12--10-8-|
    |-------------------|--------------|------------------|---------------|
    |-----------------|----------------|------------|-----------------------|
    |-----------------|----------------|------------|-----------------------|
    |-----------------|-10-10----------|------------|---(12b15r14r13)-12-12-|
    |-----10--12p10---|--------12p10---|-10--12--12-|-----------------------|
    |-/12----------12-|-------------12-|------------|-----------------------|
    |-----------------|----------------|------------|-----------------------|
    |-----------------|----------------|-----------|-----------------
    |-----------------|----------------|--------13-|-15p13--15^-15^--
    |--12p10----------|----------------|----/14----|------14---------
    |--------12-12-12-|-12p10----10-12-|-----------|-----------------
    |-----------------|-------12-------|-----------|-----------------
    |-----------------|----------------|-----------|-----------------
    |--------------------|----------------|-10----10--10-|
    |-15^-~~~---15-15p13-|----------------|----13--------|
    |--------------------|-14--12-12-12^-|--------------|
    |--------------------|----------------|--------------|
    |--------------------|----------------|--------------|
    |--------------------|----------------|--------------|
    |----------10----|-------------------|---------------------|
    |-13^-~~~-----13-|-101210---------10-|-13p10---------------|
    |----------------|--------12-12^-----|-------12--101210----|
    |----------------|-------------------|------------------12-|
    |----------------|-------------------|---------------------|
    |----------------|-------------------|---------------------|
    |--------10----|--13^--13^--|-13^---13-101310-|----10-----10----
    |-----10----10-|------------|-----------------|-13----13^-------
    |-12^----------|------------|-----------------|-----------------
    |--------------|------------|-----------------|-----------------
    |--------------|------------|-----------------|-----------------
    |--------------|------------|-----------------|-----------------
    |---10----|--------------------|------------------|----------------------
    |------13-|-12p10----10--13p10-|------------------|----------------------
    |---------|------12------------|-12p10------------|----------------------
    |---------|--------------------|------12--12p10---|----------------------
    |---------|--------------------|---------------12-|--1210--8--8h10-8h10-
    |---------|--------------------|------------------|----------------------
    |------------|---------------|----------------|------------
    |------------|---------------|----------------|------------
    |------------|-10-10---------|----------------|-10-10~~~---
    |----12p10---|-------12p10---|-10-10-10-10h12-|------------
    |---------12-|------------12-|----------------|------------
    |------------|---------------|----------------|------------
                                                    End Solo: #1
    *this part is played against the bass + drums (listen to the album)
    |--------------------|----------------13^--|--13-10---------------------
    |-8/10---------------|-13^-^-^-----10------|--------13-10---------------
    |---------12^--12-10-|---------------------|--------------12^p10--10----
    |--------------------|---------------------|----------------------------
    |--------------------|---------------------|-------------------------12-
    |--------------------|---------------------|----------------------------
    Fig A
    |---------------------------------|--------------------------------
    |--------------10----------------|---10--------------------------
    |-------10-----10------12^--10---|---10-----------10-------------
    |----------12------------------12-|--------------------12----------
    |-10h12---------------------------|-----------10h12----------------
    |---------------------------------|----------------------and so on...
    Fig B (figure out the rythm)
    |-------------------------------------------------------
    |-------------------------------------------------------
    |-------------------------------------------------------
    |-------------------------------------------------------
    |-3--3-3-3-4-|-5--5-5-5---5-5-5-------------------------
    |-1--1-1-1-2-|-3--3-3-3---3-3-3-and so on...------------
    Fill 1
    |--------10------------|-------10------------------------
    |-----10----13^-^-^-^--|-----10--13-10-------------------
    |--13------------------|---13---------12^p10-12-10~~-----
    |----------------------|---------------------------------
    |----------------------|---------------------------------
    |----------------------|---------------------------------
    Fill 2							(go to solo)
    |-13^---13-13^-|-13-10----------------------|-------------
    |--------------|------13-10-----------------|-------------
    |--------------|-----------12^p10-12-10-----|-------------
    |--------------|----------------------------|-------------
    |--------------|------------------------12--|-------------
    |--------------|----------------------------|-------------
    Solo: #2
    |-----10--------------------------------|------10--------------------------
    |---10----13-10-------------------------|----10--10-13-10------------------
    |-12-----------12^p10-12p10----10h12-10-|--12------------12^p10-12--10h12--
    |---------------------------12----------|-------------------------12-------
    |---------------------------------------|----------------------------------
    |---------------------------------------|----------------------------------
    |-----------------------|-------13-15^-15^-------|
    |-------------13-15--13-|-13-15------------15p13-|
    |-10-----12/14-----14---|------------------------|
    |-----------------------|------------------------|
    |-----------------------|------------------------|
    |-----------------------|------------------------|
    |--------10--------------------------|--------------------------------|
    |---10-13--13------------------------|--------------------------------|
    |-13-----------13-12p10-12^p10-12-10-|----------10--------------------|
    |------------------------------------|----10-12-----12p10-------------|
    |------------------------------------|---------------------12-10-8-10-|
    |------------------------------------|--------------------------------|
    |---------------------------|--------------10------------|
    |---------------------------|------------10---13p10------|
    |-----------10-12-12^p10----|----------13----------12p10-|
    |-------/12--------------12-|---12-----------------------|
    |-8-------------------------|----------------------------|
    |---------------------------|----------------------------|
    |-------------------------------|------10------------13^---
    |--------------------10---------|----10--13^-~~---10-------
    |--------------------10---------|-12^----------------------
    |---------10---10h12------10/20-|--------------------------
    |-10h12-------------------------|--------------------------
    |-------------------------------|--------------------------
    |-13-10--------------------------|-------------------|
    |-------13-10--------------------|----------10-------|
    |-------------12-12^p10-12-10----|----------10-12-10-|
    |--------------------------------|----10h12----------|
    |-----------------------------12-|-------------------|
    |--------------------------------|-------------------|
    |------------10------|-----------------------------------|
    |-----10-----10------|--------10----10----10-10-10----10-|
    |-12^--------10------|--------10-12-10-12-10-12-10-12-10-|
    |---------------------|--10h12----------------------------|
    |---------------------|-----------------------------------|
    |---------------------|-----------------------------------|
    |----------10-----------13-|-15^-15-------------------------------|
    |-----10---10-----13-15----|--------15-13--------13-15-13---------|
    |-12^------10--------------|----------------13h14--------1312-10-|
    |---------------------------|--------------------------------------|
    |---------------------------|--------------------------------------|
    |---------------------------|--------------------------------------|
    |--------10---------10------------------|-----------------------------|
    |-----------10-13^-----13---------------|-----------------------------|
    |-12-12^------------------12^p10-12--10-|---------10------------------|
    |----------------------------------12---|---10-12----12p10------------|
    |---------------------------------------|------------------1210-8h10-|
    |---------------------------------------|-----------------------------|
    |-----------------------------------|------------10-------------|
    |-----------------------------------|----------10---13p10-------|
    |--------------------10-12-12^p10---|------12^------------12p10-|
    |---------------10/12------------12-|-12------------------------|
    |-8---------------------------------|---------------------------|
    |-----------------------------------|---------------------------|
    |-----------------------------/x--|--------10------/x-------13^-|
    |---------------------10/--x/-----|-----10----13^/-------10-----|
    |---------------------10/---------|-12^-------------------------|
    |---------10----10h12-------------|-----------------------------|
    |-10h12---------------------------|-----------------------------|
    |---------------------------------|-----------------------------|
    					     End Solo: #2: Back to Fig A:
    |-13-10-----------------------|--------------------------
    |-------13-10-----------------|--------------------------
    |------------12^p10-12--10----|--------------------------
    |--------------------------12-|--------------------------
    |-----------------------------|--------------------------
    |-----------------------------|--------------------------
    Solo: #3
    |-1310-1310-13^--13--101310-------10-1310--13^-1310-1310-10---10-------------10-
    |--------------------------10-13^--------------------------13---1310--10-13^----
    |-------------------------------------------------------------------12----------
    |-------------------------------------------------------------------------------
    |-------------------------------------------------------------------------------
    |-------------------------------------------------------------------------------
    |---------------------------------101310-101310----------------|
    |-1310--10----------------10-1310---------------10-------------|
    
    Узнай ВСЕ о своем друге в ВК или FB
    |-----12--1210-121012-12^-------------------------1210-1012-10-| |--------------------------------------------------------------| |--------------------------------------------------------------| |--------------------------------------------------------------| |-----------------------------------------13^---|-1310-10-1310---10------ |---------------------------------------10------|-------------13^---1310- |-------------------------------------10--------|------------------------ |-101210-12-10---------------1012---------------|------------------------ |--------------1210-8-10/12--------------------|------------------------ |-----------------------------------------------|------------------------ |-1310-101310---------------------|--------------------------------------------- |------------13-1310---10-1310----|--------------------------------------------- |-------------------12---------12-|-1210-1210----------------------------------- |---------------------------------|----------12-1210-1210-10-------------------- |---------------------------------|-------------------------12-11-10/11-10-8---- |---------------------------------|-----------------------------------------10- |-----------||-------------------------------------------- |-----------||-----------------------------12------------ |-----------||--------12-12-12-12~~~-------12------------ |--12---14--||--12h14----------------------14----(x 2)--- |--12---14--||-------------------------------------------- |--10---12--||-------------------------------------------- |---------------12---12-----------------15^-|-1512--12--1512--12-15121512-1512--12 |-------------12--12----15---15^--15-12-----|-----15--------15----------------15-- |-------12-14^------------------------------|------------------------------------- |-12h14-------------------------------------|------------------------------------- |-------------------------------------------|------------------------------------- |-------------------------------------------|------------------------------------- |-12-12-12-12---12-12-12-12---12-12-12-12-12-12-12-12--- |--------------------------------------------------12--- |------------------------------------------------------- |------------------------------------------------------- |------------------------------------------------------- |------------------------------------------------------- rake: |-15^-15-(12--15----------------15^-1512--12-12-------1512-1512-- |--------)12------)12--1512--12---------15---12---1512----------- |--------(14------(12-------------------------------------------- |---------------------------------------------------------------- |---------------------------------------------------------------- |---------------------------------------------------------------- |---------------12------------15^-| |-1512--15-15^-----1512----12-----| |-----14----------------14--------| |---------------------------------| |---------------------------------| |---------------------------------| |-1512--12-1512---12-----12-------------------------------------- |-----15-------15-15--15^-----1512---12-1512-1512---------------- |---------------------------------14---------------14^-14^------- |----------------------------------------------------------(12)-- |---------------------------------------------------------------- |---------------------------------------------------------------- |----------------15^--1512----12-15--12------------------------------------- |-1512-1512-1512-----------15-----------15^--15-12-15-12-12----------------- |----------------------------------------------------------14--1412--12----- |------------------------------------------------------------------14--14--- |--------------------------------------------------------------------------- |--------------------------------------------------------------------------- |------------------------------------------------------------- |------------------------------------------------------------- |----------------------------12^------------------------------ |-1412----12-14------12---14-----1214-12---------------------- |------14-------1214-----------------------1412--10--12/14--- |------------------------------------------------------------- |---------------------------------------------------------------------------- |---------------------------------------------------------------------------- |-------12----------------------------------12------------------------------- |-12-14----1214-12-----12----------------12----1214-12----12----------------- |-----------------1214----1412-10-12h14--------------1214---1412-10-------- |---------------------------------------------------------------------10/12-- |------------------------------------------------------- |------------------------------------------------------- |-------12-------12-------12--14^-14-12----------(x 4)-- |-12h14----12h14----12h14------------------------------- |------------------------------------------------------- |------------------------------------------------------- |------12------------------15^--15^^^-12-1512---|-1512-----------------12-------- |----12---15-15^-----15-12-------------------15-|-----15-1512--------12--1512---- |-14^-------------------------------------------|-------------14-14^---------14-- |-----------------------------------------------|-------------------------------- |-----------------------------------------------|-------------------------------- |-----------------------------------------------|-------------------------------- |------------------------------------12-|------12-----12---------- |---------------------------------12----|----12-----12--15^--15^-- |-1214121412-----------------14^--------|-14^----14^-------------- |------------1412----1214---------------|------------------------- |-----------------14--------------------|------------------------- |---------------------------------------|------------------------- |-12----------12-------|------------------12--------|-----12---------------------- |---15-12---12--1512---|-12-12-1512----------1512---|--------1512----------------- |--------14^--------14-|-----------14-14^--------14-|-14^--------14-14^-12-14--12- |----------------------|----------------------------|----------------------------- |----------------------|----------------------------|----------------------------- |----------------------|----------------------------|----------------------------- |-----12-----12-----------------|---------------------| |---------------15-15-121412----|---------------------| |-14^----14^-----------------14-|-14^--14^--14^^-1214-| |-------------------------------|---------------------| |-------------------------------|---------------------| |-------------------------------|---------------------| |----------------------|--------------------------------- |----------------------|--------------------------------- |-12-------------12----|--------------------------------- |-----1412--1214----14-|-----------14-------------------- |---------14-----------|-----12-14----14---------------- |----------------------|-------------------0------------- |------------------------------------------------------- |------------------------------------------------------- |------------------------------------------------------- |---------0h2-----------------------------------0h2----- |---0h2-----------------------------------0h2----------- |-0-----3-----0-0-0-0-0-0-0-0-0-0-0-0-0-0-----3--------- |-------------------------|------------------------------ |-------------------------|------------------------------ |------------4^--2h4---4--|--/9-------------4^--2h4---4- |---------2---------------|---------------2-------------- |---0h2-------------------|---------0h2------------------ |-0-----3-----------------|-------3-----3---------------- |-------------------------10^-10^-10^----10^^^------------------ |-----8-----8---10^p8------------------------------8---10^-8---- |-4/9---9-----9-------9------------------------9-----9---------- |--------------------------------------------------------------- |--------------------------------------------------------------- |--------------------------------------------------------------- |----15^-15p12----15p12----------12-------------------- |-12-----------12-------12-12h15----15p12----12-------- |-----------------------------------------14-12-------- |------------------------------------------------------ |------------------------------------------------------ |------------------------------------------------------ |-----------------12----------------------------------- |--------------12----15p12-----------------12---------- |-------12-14^-------------14-121412141214-12---------- |-12h14------------------------------------------------ |------------------------------------------------------ |------------------------------------------------------ |------------------------------------------------------ |---------------------------------12------------------- |---------------------12----------12------------------- |-(12)h14p12----12h14----14p12h12---------------------- |------------14---------------------------------------- |------------------------------------------------------ |------------------------------------------------------ |----------12----------------------------12-12--------- |----------12----------------------------12-12--------- |-14p12-------14p12----------12-14p12h14--------------- |-------14----------14-12h14--------------------------- |------------------------------------------------------ full full 1.5 |------------------------------------------------------ |----------12-12--------12-15-------------------------- |----------12-12----14^-------14^--14^--14^------------ |-14p12h14-------14------------------------------------ |------------------------------------------------------ |------------------------------------------------------ |------------------------------------------------------ |--------------------------------------12------------- |-12-14-12h14-12~----------------------12------------- |------------------------------------------------------ |------------------------------------------------------ |------------------------------------------------------ Okay, now here's the tricky part. You're gonna have to adlib in E to do this solo. It's basically imposible to transcribe so you're on your own. This part starts about 10:45 into the song, and is the clean-toned solo groove. |------------------------------------------------------ |------------------------------------------------------ |----x----2-0------x------2-0------x------2-0---------- |----x----2-0------x------2-0------x------2-0---------- |----x--x-----x----x-x--x-----x----x-x--x-----x-------- |-3^-0--0-----0-3^---0--0-----0-3^---0--0-----0-3^/---- Fills 1 & 2 -------3-5p3------------------------------------------- ----3h5-----5-5p3-------------------------------------- --4---------------4-4s2--0-2/4-4-4p2------------------- -------------------------------------2-2p0------------- ------------------------------------------2-2p0-------- ------------------------------------------------3------ Fills 4 & 7 |------------------------------------------------------ |------------------------------------------------------ |-0-------------0------------0------------------------- |---2p0---2p0------2p0---0h2---2p0---0h2-0------------- |-------2-----2--------2-----------2-------2p0--------- |----------------------------------------------3^------ Fill 5 |------12--------------------12-15^-15-121512------------------ |----12--15^--15^-15-12----12-----------------15-15p12--------- |-14^-------------------14^----------------------------14-12-- |-------------------------------------------------------------- |-------------------------------------------------------------- |-------------------------------------------------------------- Fill 6 |------12---------------------------------------------------------- |----12---15p12---------------------------------------------------- |-14^-----------14-12~------------12----12------------------------- |------------------------14p12----12h14----14p12------------------- |------------------------------14----------------14-12--2----0---- |----------------------------------------------------------3^------ Fingerpick: |--0--0--0--0--0--0--0---0---0--0---0---0--0--0---0---0---0---0---0-- |---0--0--0--0--0--0--0---0---0--0---0---0--0--0---0---0---0---0---0- |-------------------------------------------------------------------- |-2--4--5--7--5--7--9--12--14--9--12--14--7--9--12--14--14--14--14--- |-------------------------------------------------------------------- |-------------------------------------------------------------------- slower......slower.... |--0--0--0--0--0--0--0--0--0--0--0--0--0--0--0--0--0---0---0----0----0-- |---0--0--0--0--0--0--0--0--0--0--0--0--0--0--0--0--0---0---0----0----0- |----------------------------------------------------------------------- |-7--9--9--9--7--9--4--2--4--2--4--2--4--2--4--7--9--12--14---14---14--- |----------------------------------------------------------------------- |----------------------------------------------------------------------- 11:56 Distortion On: |-------||--------------------------------------------- |-------||--------------------------------------------- |-------||--------------------------------------------- |-------||--------------------------------------------- |-------||---0-2-0h2p0-0-2-0h2p0-0-2-0----------------- |-17

    www.rdrop.com/~mjames/sabbath/
    поиск лекарств
    список лекарств

    Огнестойкие окна

    ПВХ окон станки. Сравните цены и выберите дешевле

    aluspace.ru








    О сайтеАккордыХит-парадПоискУроки ФорумыИщу песню
    ПрограммыСвежачок-сПодпискаСтатьи
    Яндекс.Метрика