Басовая табулатура Black Sabbath | Evil Woman гитара табулатуры уроки тексты песен Black Sabbath текст lyrics песня аккорды песни ноты нота электрогитара струна  
   А Б В Г Д Е Ж З И К Л М Н О П Р С Т У Ф Х Ч Ш Ы Э Ю Я       Разные песни
1-9 A B C D E F G H I J K L M N O P Q R S T U V W Y Z      Все исполнители in english

    



группа Black Sabbath, Басовая табулатура песни Evil Woman

Продолжаем грести бабос на ботах в Telegram.
Только в этот раз есть вариант автоматизировать это дело, привлекая рефералов. Вы можете заработать если »

Группа: Black Sabbath - другие аккорды (243),   о группе (21 статей),   диски (20),   фотографии (152)
Басовая табулатура песни: Evil Woman
Просмотров: 1240
Прислал: Sabbath (sabbath54@mail.ru)




    
from - KtuluKid@aol.com
Evil Woman - Bass
Black Sabbath - Black Sabbath (1970)

    Intro                  Main/Vocal/solo riff
||--3---------1---------|---------------------------------|
||-------3---------1----|---------------------------------|
||----------------------|----------1-----------------1--3-|
||----------------------|-1---3--3----3--3-1---3--3-------|
                                         Evil Woman don't you play...
-------------------------------||----------------1--1-3--3-
---------5----------------5--7-||-----0-1--2-3-4-----------
-5--7--7----7--7-5---7--7------||-1-1----------------------
-------------------------------||--------------------------

Продолжаем грести бабос на ботах в Telegram.
Только в этот раз есть вариант автоматизировать это дело, привлекая рефералов. Вы можете заработать если »

-3-3----------------------------------------------------1-- -------------------------3-------------------0-1--2-3-4---- -------------------1-3/5-----------1--3--1-1--------------- ------1---3--3-1-3---------1--3--3------------------------- Pre-solo 1-3--3-3-3--||-------------|| ------------||-------------|| ------------||-------------|| ------------||-1-1-1-1-1-1-||

www.rdrop.com/~mjames/sabbath/
поиск лекарств
список лекарств






О сайтеАккордыХит-парадПоискУроки ФорумыИщу песню
ПрограммыСвежачок-сПодпискаСтатьи
Яндекс.Метрика