Басовая табулатура Black Sabbath | Behind The Wall Of Sleep гитара табулатуры уроки тексты песен Black Sabbath текст lyrics песня аккорды песни ноты нота электрогитара струна  
   А Б В Г Д Е Ж З И К Л М Н О П Р С Т У Ф Х Ч Ш Ы Э Ю Я       Разные песни
1-9 A B C D E F G H I J K L M N O P Q R S T U V W Y Z      Все исполнители in english

    



группа Black Sabbath, Басовая табулатура песни Behind The Wall Of Sleep

Продолжаем грести бабос на ботах в Telegram.
Только в этот раз есть вариант автоматизировать это дело, привлекая рефералов. Вы можете заработать если »

Группа: Black Sabbath - другие аккорды (243),   о группе (21 статей),   диски (20),   фотографии (152)
Басовая табулатура песни: Behind The Wall Of Sleep
Просмотров: 1245
Прислал: Sabbath (sabbath54@mail.ru)




    
from - KtuluKid@aol.com
Behind The Wall Of Sleep / WASP - Bass
Black Sabbath - Black Sabbath (1970)

       intro riff                                    bend
     ||--------------------------------------------7-9(10)9-7-------------
     ||-----------------/9--9-9--9-7---7h9--9-9--9------------9-9--9-9--9-
     ||------------------------------9------------------------------------
     ||--7--7-7--7-7--7---------------------------------------------------
                                      
     --------7----------------------||-----------------------------------
     -7---------9--9-9--9--7--------||-----------------------------------
     ---9-7------------------9-7-5--||-----------------------------------
     -------------------------------||--7--7/--------7--7/-------7--7/---
                   main riff Precious cups within the flower...
     ------------||------------------------------------------------------
     ------------||----------7-5-5h7--7--7-7-5-----------------7-5-------

Продолжаем грести бабос на ботах в Telegram.
Только в этот раз есть вариант автоматизировать это дело, привлекая рефералов. Вы можете заработать если »

------------||--0---3---------------------7-5-3---0---3-------5h7--7 ---7--7/----||------------------------------------------------------ Feel ------------||--------------------------------------------||-------- ------------||---------------------------7--7-7-7-7--5----||-------- ---7-7/-----||---5--5--3--6p5p3-------7-----------------7-||-------- ---------3--||------------------5-------------------------||--7--5h7 your spirit rise with the priest... -------------------------------------|| p=pulloff ------------------------9--9-9-9-7---|| h=hammer-on --5-----5-7----------9-------------9-|| /=slide down -----7-------7--57------------------|| =slide up

www.rdrop.com/~mjames/sabbath/
лекарство в аптеке
список лекарств

футболки с логотипом linkin park

designtvoy.com








О сайтеАккордыХит-парадПоискУроки ФорумыИщу песню
ПрограммыСвежачок-сПодпискаСтатьи
Яндекс.Метрика