Табулатура Black Sabbath | The Wizard  (2) гитара табулатуры уроки тексты песен Black Sabbath текст lyrics песня аккорды песни ноты нота электрогитара струна  
   А Б В Г Д Е Ж З И К Л М Н О П Р С Т У Ф Х Ч Ш Ы Э Ю Я       Разные песни
1-9 A B C D E F G H I J K L M N O P Q R S T U V W Y Z      Все исполнители in english

    



группа Black Sabbath, Табулатура песни The Wizard (2)

Работа в Европе для граждан РФ, Украины, СНГ

  • минимальная зарплата $500.
  • виза и контракт на полгода, возможно продление
  • проживание оплачивает работодатель
  • нужен только загранпаспорт
  • оформление 190 €
  • данное предложение - отличная возможность эмигрировать в Европу и закрепиться здесь навсегда.

  • Мы свяжемся с Вами по WhatsApp или Viber и ответим на любые вопросы.
    на нашем сайте можно почитать подробнее »

    Группа: Black Sabbath - другие аккорды (243),   о группе (21 статей),   диски (20),   фотографии (152)
    Табулатура песни: The Wizard (2)
    Просмотров: 1059
    Прислал: Sabbath (sabbath54@mail.ru)




        
    from - Michael James 
    The Wizard
    Black Sabbath - Black Sabbath (1970)
    
    |---------------------------------------------
    |---------------------5~-5~-------------------
    |---------------------5~-5~-------------------
    |-7---/10---7--------------------5------------
    |-7---/10---7----------------5h7---7-5p3------
    |-5---/8----5----------------------------5p3--
    Solo:
    |--------------------------------------------------------------
    |--------------------------------------------------------------
    |-----------------------------------------------5--------------
    |----------------------------5-5h7----7p5---5h7---7--7p5---5h7-
    |3h5-3h5p3h5-3h5-3h5p3h5-5h7--------------7--------------7-----
    |--------------------------------------------------------------
    |----------------------------------------------------------
    |----5-8---------------------------------------------------
    |-7^-----7^-^p5-7p5---------------------5------------------
    |-------------------7-5h7--------5--5h7----7p5-----5h7-----
    |----------------------------5h7----------------7----------
    |----------------------------------------------------------
    |----------------||--------||---------||---------
    |----------------||--------||-trill---||---------
    |----------------||-5~~~~~-||---------||--5~~~~--
    |-7--7------8--7-||--------||-5h7~~~~-||---------
    |-7--7------8--7-||--------||---------||---------
    |-5--5------6--5-||--------||---------||---------
    Solo:
    |--------------------------------------------5-8p5-8p5-----
    |------------------------------------------------------8p5-
    |--trill--------------------------------5h7----------------
    
    Узнай ВСЕ о своем друге в ВК или FB
    |---------------5h7p5---5h7---/---7p5-7-------------------- |-3-(5)~~---5h7-------7------------------------------------ |---------------------------------------------------------- |--------------------------5------------------------------- |-----8p5----------------5----8-5-------------------------- |-7p5-----------------7^----------^7p5h7-7p5---5--7^--7^~-- |--------------------------------------------7------------- |---------------------------------------------------------- |---------------------------------------------------------- |------5--------------------------------------------------- |----5----8-5---------------------------------------------- |-7^----------^7p5h7-7p5----5--------------5--------------- |------------------------7------7p5----5h7---7p5---5h7~~~-- |-----------------------------------7------------7--------- |---------------------------------------------------------- |------------------------------------------ |------------------------------------------ |-------------------------5---------------- |-----5------------5--5h7----7p5----7--7--- |-5h7----5--3--5/7---------------7--------- |------------------------------------------ |---------------------------------------------------------------------------------- |-----------------5~-5~------------------5-5-----------------5-5------------------- |-----------------5~-5~------------------5-5-----------------5-5------------------- |-7---/10---7----------------5-------------------5-------------------5------------- |-7---/10---7------------5h7---7-5p3---------5h7---7-5p3---------5h7---7-5p3------- |-5---/8----5------------------------5p3-----------------5p3-----------------5p3-5-

    www.rdrop.com/~mjames/sabbath/
    найти лекарство
    список лекарств






    О сайтеАккордыХит-парадПоискУроки ФорумыИщу песню
    ПрограммыСвежачок-сПодпискаСтатьи
    Яндекс.Метрика