Басовая табулатура Black Sabbath | Lonely Is The Word гитара табулатуры уроки тексты песен Black Sabbath текст lyrics песня аккорды песни ноты нота электрогитара струна  
   А Б В Г Д Е Ж З И К Л М Н О П Р С Т У Ф Х Ч Ш Ы Э Ю Я       Разные песни
1-9 A B C D E F G H I J K L M N O P Q R S T U V W Y Z      Все исполнители in english

    



группа Black Sabbath, Басовая табулатура песни Lonely Is The Word

Работа в Европе для граждан РФ, Украины, СНГ

  • минимальная зарплата $500.
  • виза и контракт на полгода, возможно продление
  • проживание оплачивает работодатель
  • нужен только загранпаспорт
  • оформление 190 €
  • данное предложение - отличная возможность эмигрировать в Европу и закрепиться здесь навсегда.

  • Мы свяжемся с Вами по WhatsApp или Viber и ответим на любые вопросы.
    на нашем сайте можно почитать подробнее »

    Группа: Black Sabbath - другие аккорды (243),   о группе (21 статей),   диски (20),   фотографии (152)
    Басовая табулатура песни: Lonely Is The Word
    Просмотров: 1264
    Прислал: Sabbath (sabbath54@mail.ru)




        
    
    Lonely Is The Word
    Black Sabbath - Heaven And Hell (1980)
    note: "*"s are used to represent the same note X times (listen to the song).
    Tune down 1/2 step
                     1.   2. 
    G---------------|-----|-----|
    D---------------|-----|-----|
    A---------------|-12-|-15-|
    E--5-5---5-5--|-----|-----|
       0:49
    G-----------------------------------7-9-------|-----|
    D---------5-7--------------------/9-----------|-----|
    A------/7-----7-5----5---5---7----------------|-12-|
    E--5*--------------5---5---5------------7-5---|-----|
                          1.   2.
    G--------------------|----|-----|
    D--------------------|----|-----|
    A--------3-----------|----|-15-|
    E--5-5----3-4-5-5--|-8--|-----|
       1:36
    G-----------------------------------------7-9-------------------
    D------------7-5-----------------------/9-----------------------
    A--3-------------7-6-5----5---5---7--7--------------------------
    E----3-4-5*-------------5---5---5-------------7-5--0-5-0-5-4-3*-
    
    G----------------------------7-9------|
    D-------------------------/9-----9----|
    A--------5----5---5---7---------------|
    E--0-3-5----5---5---5--------------5--|
       1:55 (solo part)
    G---------------------------------------------------
    D------------------------------------3---3----------
    A----------------------------------3---3----3p2-0-2-
    E--5--0-5--0-5-0-5--0-5h7-1(hold)-------------------
    G-----------------------------------------------------
    D--------------------------3----3----3---3-----3----5-
    A-----------------------------3----3---3----/5---/7---
    E--5--0-5--0-5-0-5-0-5-7b8---------------------------- (b=bend)
    G----------------------------------------------
    D-------------------------------3----3---3-----
    A-----------------------------3----3---3-------
    
    Узнай ВСЕ о своем друге в ВК или FB
    E--5--0-5--0-5-0-5-0-5-7b8-1-----------------8- 2:22 2:30 G------------------------------------------------|-----------| D------------------------------3----3---3----3--|-----------| A------------0---0----0h2----3----3---3----5-----|--7-5-3-0--| E--5--0-5--0---0----0-----1----------------------|-----------| 1. G------------------|--------------------------------| D------------------|------------3----3---3----------| A------------------|----------3----3---3----3-2-0h2-| E--5--0-5--0-5-0-5-|-0-5h7-1------------------------| 2. 3. G-------------------------------------|----------------------------------| D---------------3----3---3-----3----5-|--------------3----3---3----------| A-------------3----3---3----/5---/7---|------------3----3---3----8-7-----| E--0-5-7b8-1--------------------------|-0-5-7b8-1--------------------8-7-| 4. 3:10 G-------------------------------|---------------------------- D-------------3----3---3--drum--|---------------------------- A-----------3----3---3----fill--|--7-5-3-0---7-5-3-0---7-5--- E--0-5h7-1----------------------|--------------------------7- G---------------------------------------------------------- D--3----3---3---3------------------------------------------ A-----3---3---3---7--5h7-2---2---------------------------5- E--------------------------3---5--0-5-0-5-4-3--0-3-0-3-5--- G-------------------7-9------------------------------------------ D----------------/9-----9---------------------------------------- A----5---5---7----------------------12-12-12-12-12-12-12-12--5- E--5---5---5--------------5--0-5--0------------------------------ G-------------------7-9------ D----------------/9-----9---- etc A----5---5---5--------------- E--5---5---5--------------5-- 3:48 back to solo part there's some different parts like this one: 4:06 G---------------5-4---4------------------------------------- D-------------------7---/7-7-------------------------------- A-----------------------------0----0-8--8--7-5h7-0---------- E--5--0-5--0-1------------------0--------------------------- just improvise...

    www.rdrop.com/~mjames/sabbath/
    найти лекарство
    список лекарств






    О сайтеАккордыХит-парадПоискУроки ФорумыИщу песню
    ПрограммыСвежачок-сПодпискаСтатьи
    Яндекс.Метрика