Басовая табулатура Black Sabbath | Lady Evil гитара табулатуры уроки тексты песен Black Sabbath текст lyrics песня аккорды песни ноты нота электрогитара струна  
   А Б В Г Д Е Ж З И К Л М Н О П Р С Т У Ф Х Ч Ш Ы Э Ю Я       Разные песни
1-9 A B C D E F G H I J K L M N O P Q R S T U V W Y Z      Все исполнители in english

    



группа Black Sabbath, Басовая табулатура песни Lady Evil

Продолжаем грести бабос на ботах в Telegram.
Только в этот раз есть вариант автоматизировать это дело, привлекая рефералов. Вы можете заработать если »

Группа: Black Sabbath - другие аккорды (243),   о группе (21 статей),   диски (20),   фотографии (152)
Басовая табулатура песни: Lady Evil
Просмотров: 1205
Прислал: Sabbath (sabbath54@mail.ru)




    
From - Michael James 
Lady Evil - Bass
Black Sabbath - Heaven And Hell (1980)

|---------------------------------
|---------------------------------
|---------------------------------
|-0-1-2-3-3-3-3-3-3-3-3-3-3-3-3-3-
|----------------------------------------------------------
|-----------5-3--------------------------5-3---------------
|---------------3-5---1-----3----------------5-4-3-1--1----
|-0-1-2-3-3---------3-----3----0-1-2-3-3-----------------3-
|-----------------------
|-----------------------
|------------1----3-----
|-0-1-2-3---------------
"There's a place just south..."
|---------------------------------------------------------------
|---------------------------------------------------------------
|-----1---1---------1---5-4-3-------1---1---------1---5-4-3-----
|-3-3---3---1--3--3---3-------1-3-3---3---1--3--3---3-------1-3-
"Lady evil..."
|-------------------------------------------------------------
|---------------5-3-------------------------------3---3---3-5-
|-1--1-1-1-1--------5-4-3-1---3-3-3-3---1-----------5---5-----
|------------3--------------3---------------1--3--------------
"Lady evil..evil on my mind"
|--------------------------------
|--------------------------------

Продолжаем грести бабос на ботах в Telegram.
Только в этот раз есть вариант автоматизировать это дело, привлекая рефералов. Вы можете заработать если »

|-1--1-1-1-1--------------------- |------------1--1-1-1-1-1-1-1-1-- During Solo: 1 step up |--------------------------------------------------------------- |--------------------------------------------------------------- |-----3---3---------3---7-6-5-------3---3---------3---7-6-5----- |-5-5---5---3--5--5---5-------3-5-5---5---3--5--5---5-------3-5- slow |---------------------------------------------------------- |---------------567--------3---------------567---------3--- |--5---5--5--5----------------5---5--5--5------------------ |----------------------5-5------------------------5-5------ |---------------------------------------------------------- |-----------789--------5----------------------------------- |-7---7-7-7---------------7---7-7-7--5-5-5-5-5-5-5-5-5----- |----------------7--7-------------------------------------- change of tempo: |------------3----------------------------3---------------- |----5---3-----5------3-----------5---3-------------------- |-----------------3h5-----------------------3---1---------- |-3----3---3------------3-6-5-3-3---3---3------------------ Ending |---------------- |---------------- |-----3-5-3------ |-3-6-------6-3--

www.rdrop.com/~mjames/sabbath/
поиск лекарств
список лекарств

Купить песок в Подольске с доставкой

Минимальный объём доставки 2 м3, работаем круглосуточно

smasmo.ru








О сайтеАккордыХит-парадПоискУроки ФорумыИщу песню
ПрограммыСвежачок-сПодпискаСтатьи
Яндекс.Метрика