Басовая табулатура Black Sabbath | Children Of The Sea гитара табулатуры уроки тексты песен Black Sabbath текст lyrics песня аккорды песни ноты нота электрогитара струна  
   А Б В Г Д Е Ж З И К Л М Н О П Р С Т У Ф Х Ч Ш Ы Э Ю Я       Разные песни
1-9 A B C D E F G H I J K L M N O P Q R S T U V W Y Z      Все исполнители in english

    



группа Black Sabbath, Басовая табулатура песни Children Of The Sea

Работа в Европе для граждан РФ, Украины, СНГ

  • минимальная зарплата $500.
  • виза и контракт на полгода, возможно продление
  • проживание оплачивает работодатель
  • нужен только загранпаспорт
  • оформление 190 €
  • данное предложение - отличная возможность эмигрировать в Европу и закрепиться здесь навсегда.

  • Мы свяжемся с Вами по WhatsApp или Viber и ответим на любые вопросы.
    на нашем сайте можно почитать подробнее »

    Группа: Black Sabbath - другие аккорды (243),   о группе (21 статей),   диски (20),   фотографии (152)
    Басовая табулатура песни: Children Of The Sea
    Просмотров: 1228
    Прислал: Sabbath (sabbath54@mail.ru)




        
    from - Michael James 
    Children Of The Sea - Bass
    Black Sabbath - Heaven And Hell (1980)
    
    |----9-10-10h12----14-12-10-12--10-9-10--9----9----109----
    |-12--------------------12-----------------12---12---------
    |-------------------------------------------------------5-
    |----------------------------------------------------------
    ...on the edge of time"            "weve lost the rising sun"
    |------------10-9----9-------------------------------------
    |-------10h12-----12---10----------------------------------
    |-5-5--------------------108-7-5---------5-------5-5------
    |----------------------------------------------------------
                     "as the misty morning"
    |---------------------------------10-9----9----------------
    |-2-3-5----3p2-------------------------12---10-------------
    |-------3------5--------5-5--------------------108-7-5----
    |----------------------------------------------------------
    |----------------------------------------------------------
    |-----------------------------------------4-7-------------
    |--------------2h3-2h3-------------2-5--5------------------
    |-5---5-5---------------5---5-5--3-------------------------
    |---------------------------------4-7---------------------
    |-------------------------------5--------4-7--------------
    |--------------2h3-2h3-----------------5-------------------
    |-5---5-5---------------5---5-5----------------------------
    "we sail across the air.,."
    |----------------------------------------------------------
    |-----------------------------------------4-7-------------
    |--------------2h3-2h3-------------2-5--5------------------
    |-5---5-5---------------5---5-5--3-------------------------
    "we thought that it could..."
    |----------------------------------------------------------
    |-------------------------------7-5------------------------
    |--------------2h3-2h3--------------7-5-7-5----------------
    |-5---5-5---------------5---5-5-------------8-7------------
    "we glide above the ground..."
    |----------------------------------------------------------
    |-----------------------------------------4-7-------------
    |--------------2h3-2h3-------------2-5--5------------------
    |-5---5-5---------------5---5-5--3-------------------------
    "now it seems our world has come undone"
    |----------------------------------------------------------
    |-------------------------------------------5-7------------
    
    Узнай ВСЕ о своем друге в ВК или FB
    |--------------2h3-2h3------------------5-7---------------- |-5---5-5---------------5---5-5--5-7-8--------------------- "oh they say, that its over" |---------------------------------------------------------- |---------------------------------------------------------- |-3----3---3h(5)----2-3-5--------3-2-------2-3-5-3-------- |---------------3-5-------5--5-5------5-3-5---------------- "and it just had to be" "ooh they say..." |-------------------5-4------------------------------------------- |-----------------------7-5-7-5---5------------------------------- |-3-----------------------------7----3----3-3------------3-5-7---- |-----3--0-3-5-3-5------------------------------3---3--5---------- "were lost children..." |---------------------------------------------------------- |---------------------------------------------------------- |-3----3-3----3-----------3---3-3----------3-5-7-5---5-5--- |----------------3----3-3----------3---3-3----------------- w/ solo: |------7--------------5------------4----------------------- |----7---7----------5---5--------4---4------------------7-7 |-5--------5---3-3--------3-2-2--------2------------------- |----------------------------------------5-5--5-5--5-5----- |------------9--9-11-12-11-9-11-------------------------------- |----------9--------------------------------------------------- |-/7-7-5-7------------------------------5-------7-9-10-9-7-9--- |-------------------------------7-7-5-7---7---7---------------- |-----------9--9-11-12-11-9-11----------------------------- |---------9------------------------------------------------ |-7-7-5-7------------------------------5-------10-9-------- |------------------------------7-7-5-7---7---7------------- |-------------------------------------------------9----------- |-----------------------------------------4-5----------------- |-7-----7----7---7--------5----5-5---5-5------7-------7---7--- |-----7----7---7---8-8--8-----------------------7---7---7----- |---------------------------------------------------------- |---------------------------------------------------------- |------7-5------------------------------------------------- |-8-8------------------------------------------------------ w/acoustic part |---------------------------------------10-9----9---------------- |--------------------------------------------12---12------------- |----------------------------------------------------108-------- |-/10--10-10---10-10--13p12-10---10-10--------------------12-10--

    www.rdrop.com/~mjames/sabbath/
    найти лекарство
    список лекарств






    О сайтеАккордыХит-парадПоискУроки ФорумыИщу песню
    ПрограммыСвежачок-сПодпискаСтатьи
    Яндекс.Метрика