Табулатура Black Sabbath | Over And Over (5:28) гитара табулатуры уроки тексты песен Black Sabbath текст lyrics песня аккорды песни ноты нота электрогитара струна  
   А Б В Г Д Е Ж З И К Л М Н О П Р С Т У Ф Х Ч Ш Ы Э Ю Я       Разные песни
1-9 A B C D E F G H I J K L M N O P Q R S T U V W Y Z      Все исполнители in english

    



группа Black Sabbath, Табулатура песни Over And Over (5:28)

Продолжаем грести бабос на ботах в Telegram.
Только в этот раз есть вариант автоматизировать это дело, привлекая рефералов. Вы можете заработать если »

Группа: Black Sabbath - другие аккорды (243),   о группе (21 статей),   диски (20),   фотографии (152)
Табулатура песни: Over And Over (5:28)
Просмотров: 1774
Подобрал: Sabbath (sabbath54@mail.ru)




    
from- Michael James 
Over And Over
Black Sabbath - Mob Rules (1981)
Fig A:
|----------------------------------------------------------
|----------------------------------------------------------
|----------------------------------------------------------
|-5-4-----------------------/5-4---------------------------
|-----5-7-----5~------5/7--------5-7----5~-----5/7---------
|-------0------------7-------------0----------7------------

|----------------------------------------------------------
|-----------[1/4]------------------------------------------
|----------------------------------------------------------
|-/5-4---/7-5^---------/7--5--4--5--4----------------------
|------5----------7--------------------5--7----------------
|-----------------------------------------0----------------
Fig B:

Продолжаем грести бабос на ботах в Telegram.
Только в этот раз есть вариант автоматизировать это дело, привлекая рефералов. Вы можете заработать если »

|---------------------------------------------------------- |---------------------------------------------------------- |---------------------------------------------------------- |--/5--4--------4--5-------4-5---/7--5--4--5--4------------ |---------5--7--------7--------------------------5--/7----- |----------------------------------------------------0----- start of 2nd solo: |------------------------------------12--------------------14------- |-----------------------------------------15^---^15--12h15----15-12- |------------------------------12-14-------------------------------- |----4--5--7-----9------12-/14-------------------------------------- |-7----------------------------------------------------------------- |-------------------------------------------------------------------

www.rdrop.com/~mjames/sabbath/
поиск лекарств
список лекарств






О сайтеАккордыХит-парадПоискУроки ФорумыИщу песню
ПрограммыСвежачок-сПодпискаСтатьи
Яндекс.Метрика