Табулатура Black Sabbath | Voodoo (4:32) гитара табулатуры уроки тексты песен Black Sabbath текст lyrics песня аккорды песни ноты нота электрогитара струна  
   А Б В Г Д Е Ж З И К Л М Н О П Р С Т У Ф Х Ч Ш Ы Э Ю Я       Разные песни
1-9 A B C D E F G H I J K L M N O P Q R S T U V W Y Z      Все исполнители in english

    



группа Black Sabbath, Табулатура песни Voodoo (4:32)

Продолжаем грести бабос на ботах в Telegram.
Только в этот раз есть вариант автоматизировать это дело, привлекая рефералов. Вы можете заработать если »

Группа: Black Sabbath - другие аккорды (243),   о группе (21 статей),   диски (20),   фотографии (152)
Табулатура песни: Voodoo (4:32)
Просмотров: 1938
Прислал: Sabbath (sabbath54@mail.ru)




    
from - Michael James 
Voodoo
Black Sabbath - Mob Rules (1981)

|---------|---------------------|--------------------|
|---------|---------------------|--------------------|
|-----5p0-|-------5---7---------|---7---5----------5-|
|-0h5-----|-7-7-7-5---5-----0h5-|---7---5---7--0h5---|
|---------|-0-0-0---0---0h5-----|-0---0--------------|
|---------|---------------------|--------------------|

|---------------------|--------------------|
|-------------------5-|--------------------|
|--------5---7------5-|----------------5p0-|
|--7-7---5---5--0h5---|--7-7---7---0h5-----|
|--0-0-0---0----------|--0-0---0-----------|
|---------------------|--------------------|

|----------------------|---------------------------|
|----------------------|---------------------------|
|----------------------|---------------------------|
|--7-7--7----7-7--7----|--5-5-5-2---------5-5-5-2--|
|--5-5--5----5-5--5----|--3-3-3-0---------3-3-3-0--|
|---------3~--------2~-|---------------------------|
|1.---->		    |2.->trills 
|---------------------------|--------------------------------------|
|---8--8-8--8-8--8-8--------|--------------------------------------|
|---7--7-7--7-7--7-7--------|-5(7)--4(6)--3(5)---------------------|
|---------------------5^5/x-|-----------------5p5/5(7)-5(7)--------|
|---------------------------|-------------------------------7-3(5)-|
|---------------------------|--------------------------------------|

|-------------|-5h8p5--------------------------------858---------------|
|-------------|------8-5h8p5----------------------585---858---6^(8)6p5-|
|-------------|-------------7-5h7p5--------------5---------7p5---------|
|-------------|--------------------7-5h7p5--5h7p5----------------------|

Продолжаем грести бабос на ботах в Telegram.
Только в этот раз есть вариант автоматизировать это дело, привлекая рефералов. Вы можете заработать если »

|-------5-4-3-|---------------------------7----------------------------| |-5^^^5-------|--------------------------------------------------------| |-------------------------------------------------------------------------| |--8-7-6-5-5--------5-----------------------------------------------------| |---------8-8-7p5-7---5------------------------------2-----2--2-4^2--2--2-| |----------------------7-5---7-5-7---------------4-4---4-4---4-----4---4--| |--------------------------7-------6p53-4-5------------------------------| |--------------------------------------------5---------------------------| |-------------------------------------------------------------------| |--------5-4-3--3-2----------------5-8-7-6p5---5--------5-----------| |-4^-242------5-----5-4-2----9^^^8-----------7---7^-5-7---5-------8-| |-------------------------4---------------------------------7-\---| |-------------------------------------------------------------------| |-------------------------------------------------------------------| |-585----------------------------8----10^(12)10-8--------------8------------| |-----8-585------------------8/10-10p8------------10-8^(10)-10---5h8--------| |-----------7-575-----5---7^5----------------------------------------5h75h7-| |-----------------7-7---5---------------------------------------------------| |---------------------------------------------------------------------------| |---------------------------------------------------------------------------| trill~~~~ |--------------------------5-------------| |---5------------10p8-5------------------| |-7---5-----------------7---5(7)---------| |-------7-7\---------------------------| |----------------------------------------| |----------------------------------------|

www.rdrop.com/~mjames/sabbath/
лекарство в аптеке
список лекарств






О сайтеАккордыХит-парадПоискУроки ФорумыИщу песню
ПрограммыСвежачок-сПодпискаСтатьи
Яндекс.Метрика