Басовая табулатура Black Sabbath | Turn Up The Night (3:42) гитара табулатуры уроки тексты песен Black Sabbath текст lyrics песня аккорды песни ноты нота электрогитара струна  
   А Б В Г Д Е Ж З И К Л М Н О П Р С Т У Ф Х Ч Ш Ы Э Ю Я       Разные песни
1-9 A B C D E F G H I J K L M N O P Q R S T U V W Y Z      Все исполнители in english

    



группа Black Sabbath, Басовая табулатура песни Turn Up The Night (3:42)

Работа в Европе для граждан РФ, Украины, СНГ

  • минимальная зарплата $500.
  • виза и контракт на полгода, возможно продление
  • проживание оплачивает работодатель
  • нужен только загранпаспорт
  • оформление 190 €
  • данное предложение - отличная возможность эмигрировать в Европу и закрепиться здесь навсегда.

  • Мы свяжемся с Вами по WhatsApp или Viber и ответим на любые вопросы.
    на нашем сайте можно почитать подробнее »

    Группа: Black Sabbath - другие аккорды (243),   о группе (21 статей),   диски (20),   фотографии (152)
    Басовая табулатура песни: Turn Up The Night (3:42)
    Просмотров: 899
    Прислал: Sabbath (sabbath54@mail.ru)




        
    Black Sabbath - Mob Rules
    Turn Up The Night
    Bass tab by Andre Couto (aka "Andre The Wizard (murder in the rue morgue)")
    
    note: "*"s are used to represent the same note X times (listen to the song).
    % = repeat previous bar
    Tune down 1/2 step
    G------------------------------------|
    D-------------------------3-2--------|
    A-------3--0-5--------3-5-----3-5----|
    E--1*-----------1*--5----------------|
      "A rumble of thunder..."
    G----------------------|-----------------------------
    D------------3-1*------|--------------------0-1-2-3--
    A----------------------|------------3-1*-------------
    E--1*----3-5-----------|--1*----3-5------------------
      "The darkened deliver..."
    G-------------------------|---------------------7-5-----------7-7--
    D--------------1*---0-1-0-|-------------------------7-5------------
    A------------3------------|------------3-6*-------------5*-----5---
    E--1*----3-5--------------|--1*----3-5-----------------------------
      intro riff with fill
    G-----------------7-----------------------|
    D---------------7--7-----------3-2--------|
    A-------3--0-5-------------3-5-----3-5----|
    E--1*----------------1*--5----------------|
      "Regiment fooled you..."
    G------------------------------------------------------------------
    D--------------1*------------------------0-1-2-3-------------1*----
    A------------3-------------------3-1*----------------------3-------
    E--1*----3-5-----------1*----3-5-----------------1*----3-5---------
      "So let it all go"
    G--7-5------------------5-7*--------|
    D------7-5--------3-5-7-------------|
    A----------5*------------------5----|
    E-----------------------------------|
       chorus
    G-------------------------------------------
    D-------------------------------------------
    A-----------------------------5-6-7-8-------
    E---1*---6*---5-6-5-1*---6*----------1*----
       solo
    G-------------------------------------------------------------5-7-
    D-------------3--3-3---3-5--------------------------3--3--5-7-----
    
    Узнай ВСЕ о своем друге в ВК или FB
    A--5--5-5-3-5--------5-----3--3-0-3-5*---5--555-3-5--------------- E----------------------------------------------------------------- G---------------77-5---------------------------------------- D--------------------7-------------------------------------- A--3--3--0-3-5----------back to beginning------------------- E----------------------------------------------------------- "Evil lurks in twilight..." G----------------------------------------------------------------- D-------------3--33----3-5--------------------------3--33----3-5-- A--5--5-5-3-5-------55-----3--3-0-3-5*---5--555-3-5-------55------ E----------------------------------------------------------------- "Li-ke a fi-re..." G---------------------------------------- D---------------------------------------- A--3--4--5--6--7-8--9--10--11--12--13-14- E---------------------------------------- solo G--------------------------------------------------------------------------5-7- D-------------3-3-33---3-5---------------------------------------------5-7----- A--5--5-5-3-5--------5-----3--3-0-3-5*---5--5-5-3--------3---3---3-5----------- E-------------------------------------------------5-3*-----5---5--------------- G---------------------------------------------------------------------------- D-------------3-3-33---3-5--------------------------------------------------- A--5--5-5-3-5--------5-----3--3-0-3-5*---5--5-5-3---------3--4--5--6-...--14- E-------------------------------------------------5-3*----------------------- back to verses then chorus (2:45) G------------------------------------------------------------ D------------------------------------------------------------ A-----------------------------------------5--5-5-0-3-5*----- E---1*---6*---5-6-5-1*---6*---5-6-5-1*---------------------- G--------------------------------------------------------------5-7*-5h7*-5h7*- D--------------------------------------------------------3-5-7---------------- A-----------------------------------------5--5-5-0-3-5*----------------------- E---1*---6*---5-6-5-1*---6*---5-6-5-1*--------------------------------------- G---------------------------------------- D---------------------------------------- A-------------5-6-7-8-------------------- E---1*---6*---------1*---6*---5-6-5-1*-- etc until end

    www.rdrop.com/~mjames/sabbath/
    найти лекарство
    список лекарств






    О сайтеАккордыХит-парадПоискУроки ФорумыИщу песню
    ПрограммыСвежачок-сПодпискаСтатьи
    Яндекс.Метрика