Басовая табулатура Black Sabbath | Am I Going Insane гитара табулатуры уроки тексты песен Black Sabbath текст lyrics песня аккорды песни ноты нота электрогитара струна  
   А Б В Г Д Е Ж З И К Л М Н О П Р С Т У Ф Х Ч Ш Ы Э Ю Я       Разные песни
1-9 A B C D E F G H I J K L M N O P Q R S T U V W Y Z      Все исполнители in english

    



группа Black Sabbath, Басовая табулатура песни Am I Going Insane

Продолжаем грести бабос на ботах в Telegram.
Только в этот раз есть вариант автоматизировать это дело, привлекая рефералов. Вы можете заработать если »

Группа: Black Sabbath - другие аккорды (243),   о группе (21 статей),   диски (20),   фотографии (152)
Басовая табулатура песни: Am I Going Insane
Просмотров: 1612
Прислал: Sabbath (sabbath54@mail.ru)




    
From - KtuluKid@aol.com
Am I Going Insane - Bass
Black Sabbath - Sabotage (1975)

     ||-------------------------------------------------------------------
     ||------------------------------------9---9---9---9---9------7---7---
     ||---5--7----------3--5----------5--7---7---7---7---7---3--5---5---5-
     ||-------------------------------------------------------------------
                Everybody's looking at me...            
     ---------||----------------------------------------------------------
     ---7---7-||---9---9---9---9---9---10---10---10---10---10---9---9---9-
     -5---5---||-7---7---7---7---7---8----8----8----8----8----7---7---7---
     ---------||----------------------------------------------------------
                                    Tell me people am I going insane?...
     -----------------------------||--------------------------------------

Продолжаем грести бабос на ботах в Telegram.
Только в этот раз есть вариант автоматизировать это дело, привлекая рефералов. Вы можете заработать если »

---9---9---7---7---7---7---7-||---5---5---5---5---5-3-5-3-0---7---7-- -7---7---5---5---5---5---5---||-3---3---3---3---3-----------5---5---5 -----------------------------||-------------------------------------- -------------------------------9---------------9-----||Look out, -7---7---7-5-7-5-0---9---9---9---9---9---9---9---9---||Geezer really ---5---5-----------7---7---7-------7---7---7-------7-||crazy on this -----------------------------------------------------||song.

www.rdrop.com/~mjames/sabbath/
найти лекарство
список лекарств






О сайтеАккордыХит-парадПоискУроки ФорумыИщу песню
ПрограммыСвежачок-сПодпискаСтатьи
Яндекс.Метрика