Басовая табулатура Black Sabbath | The Thrill Of It All гитара табулатуры уроки тексты песен Black Sabbath текст lyrics песня аккорды песни ноты нота электрогитара струна  
   А Б В Г Д Е Ж З И К Л М Н О П Р С Т У Ф Х Ч Ш Ы Э Ю Я       Разные песни
1-9 A B C D E F G H I J K L M N O P Q R S T U V W Y Z      Все исполнители in english

    



группа Black Sabbath, Басовая табулатура песни The Thrill Of It All

Продолжаем грести бабос на ботах в Telegram.
Только в этот раз есть вариант автоматизировать это дело, привлекая рефералов. Вы можете заработать если »

Группа: Black Sabbath - другие аккорды (243),   о группе (21 статей),   диски (20),   фотографии (152)
Басовая табулатура песни: The Thrill Of It All
Просмотров: 1010
Прислал: Sabbath (sabbath54@mail.ru)




    
From - KtuluKid@aol.com
The Thrill Of It All - Bass
Black Sabbath - Sabotage (1975)

       Intro (in time)                     2x
     ||-----------------------------------|---------------------------
     ||-----------------------------------|-------------2--4--2-------
     ||-----------------------0--2--0-----|------2---/4---------4-2-4-
     ||-----------------0--2-----------0--|--2------------------------
                                                        This part is
     --------------------------||----------------------|--------------
     ------------2--4--2-------||----------------------|-----10-------
     -----2---/4---------4-2-4-||----------------------|--------------
     --2-----------------------||--5---4---5---4---5-4-|--8-----10h12-
     a C minor penatonic groove,Geezer does lots of different stuff... 
     -----------------------------------------------------------------
     ------------10----10-12b(13)-10-------10-10-10--------------10---
     -12-10---12----12---------------12--------------------10-12----12
     ------------------------------------8-----------10h12------------
     improvise.      Inclination of direction...          (optional)

Продолжаем грести бабос на ботах в Telegram.
Только в этот раз есть вариант автоматизировать это дело, привлекая рефералов. Вы можете заработать если »

--------------||------------------------------------|----------|- -12-10--------||------------------------------------|-3p2-3p2--|- -------12-10--||-3-5-5-5-5-5-0-2----3-5-5-5-5-5-0-2-|----------|- --------------||------------------------------------|----------|- That's mostly it..theres not much more that I can tab out because throughout the song Geezer throws in alot of licks and I don't know em all and if I did it would take 10 pages to tab out so the best I can say is create some grooves of the C minor penatonic, when the song gets faster("Well that's my story and I'm sticken' to it cause I got no reason to lie...")it is just the C penatonic groove. Throughout the song it goes back to the: ---------------------- /=slide up h=hemmer-on ---------------------- =slide down b=bend ---------------------- p=pull-off ( )=bend to this note --5---4---5---4---5-4-... sorry I can tab more out but I can't tab out what's goin through Geezer's brain, just gotta groove,it's fun improvising though so just flow with it...

www.rdrop.com/~mjames/sabbath/
найти лекарство
список лекарств






О сайтеАккордыХит-парадПоискУроки ФорумыИщу песню
ПрограммыСвежачок-сПодпискаСтатьи
Яндекс.Метрика