Басовая табулатура Black Sabbath | A hard road гитара табулатуры уроки тексты песен Black Sabbath текст lyrics песня аккорды песни ноты нота электрогитара струна  
   А Б В Г Д Е Ж З И К Л М Н О П Р С Т У Ф Х Ч Ш Ы Э Ю Я       Разные песни
1-9 A B C D E F G H I J K L M N O P Q R S T U V W Y Z      Все исполнители in english

    



группа Black Sabbath, Басовая табулатура песни A hard road

Продолжаем грести бабос на ботах в Telegram.
Только в этот раз есть вариант автоматизировать это дело, привлекая рефералов. Вы можете заработать если »

Группа: Black Sabbath - другие аккорды (243),   о группе (21 статей),   диски (20),   фотографии (152)
Басовая табулатура песни: A hard road
Просмотров: 1098
Прислал: Sabbath (sabbath54@mail.ru)




    
from - KtuluKid@aol.com
Never Say Die - Bass
Black Sabbath - Never Say Die (1978)

           Main riff/vocal/solo riff
         ||-----------------------------------------------------------
         ||-----------------------------------------------------------
         ||-0--0-0-0-0-0-0-2--2-2-2-2-2-5--5-5-5-5-5-5-0--0-0-0-2p0---
         ||---------------------------------------------------------3-
         -------------------------------------------------------------
         -------------------------------------------------------------
         -0--0-0-0-0-0-0-2--2-2-2-2-2-2-5--5-5-5-5-5-5-12--12-12-12-12
         -------------------------------------------------------------
                  Don't you ever have to worry...
         -------||----------------------------------------------------
         -------||----------------------------------------------------
         -12-12-||-------------------------0-0-0--0-0-0--0-0-0--0-0-0-
         -------||-1-1-1-1-1-1-1-1-1-1-1-1----------------------------
         don't you ever,never say die... 2x
         ||---------------------------------------------------------|-
         ||----------------5-5-5-5-5-3------------------5-5-5-5-3---|-
         ||------------3h5-------------5------------3h5-----------5-|-
         ||-3--3-3-3-3-------------------3--3-3-3-3-----------------|-
         last time play

Продолжаем грести бабос на ботах в Telegram.
Только в этот раз есть вариант автоматизировать это дело, привлекая рефералов. Вы можете заработать если »

------------------------------------------------------------- ----------------5-5-5-5-5-17-17-17-17-17-17-17-17-17-17-17-17 ------------3h5---------------------------------------------- -3--3-3-3-3-------------------------------------------------- Middle part("don't you -------------------------------------|--------------7-------- -17-17-17-17-17-17-17-17-17-17-17-17-|-5--5-5-5-7-9---------- -------------------------------------|----------------5--5--5 -------------------------------------|----------------------- ever say die..") -----------------7------------------------------------------- ----5--5-5-5-7-9---------------------------------------7--7-- --5----------------5--5--5--5--0--0--0--0--5--5--5--5-------- ------------------------------------------------------------- outro ------------------------------|------------------------------ 7--7--------------------------|------------------------------ -----5h7-5h7-5h7--5h7-5h7-5h7-|-0--0----0--0----0--0----0--0- ------------------------------|--------------------

www.rdrop.com/~mjames/sabbath/
лекарство в аптеке
список лекарств






О сайтеАккордыХит-парадПоискУроки ФорумыИщу песню
ПрограммыСвежачок-сПодпискаСтатьи
Яндекс.Метрика