Басовая табулатура Black Sabbath | Over To You гитара табулатуры уроки тексты песен Black Sabbath текст lyrics песня аккорды песни ноты нота электрогитара струна  
   А Б В Г Д Е Ж З И К Л М Н О П Р С Т У Ф Х Ч Ш Ы Э Ю Я       Разные песни
1-9 A B C D E F G H I J K L M N O P Q R S T U V W Y Z      Все исполнители in english

    



группа Black Sabbath, Басовая табулатура песни Over To You

Продолжаем грести бабос на ботах в Telegram.
Только в этот раз есть вариант автоматизировать это дело, привлекая рефералов. Вы можете заработать если »

Группа: Black Sabbath - другие аккорды (243),   о группе (21 статей),   диски (20),   фотографии (152)
Басовая табулатура песни: Over To You
Просмотров: 1414
Прислал: Sabbath (sabbath54@mail.ru)




    

From - Michael James 
Over To You - Bass
Black Sabbath - Never Say Die (1978)

|---------------------------------2h4----------------------
|----------------------4/6--4--4---------------------------
|-2-2--2--2--2--2-2-2-----------------2-2--2--2--2--2-2-2--
|----------------------------------------------------------
|-4/6-4----------------------------------------------------
|-------6p4-2----------------------------------------------
|-------------2-2--2--2--2--2-2-2--------------------------
|----------------------------------------------------------

"Traveling endlessly..."    (1)      (2)
 ------11-11h13-11-1311--------|------11-11h13-11-13/16-16--------

Продолжаем грести бабос на ботах в Telegram.
Только в этот раз есть вариант автоматизировать это дело, привлекая рефералов. Вы можете заработать если »

|---11-------------------9------|---11----------------------------- |-9------------------------97--|-9--------------------------14---- |------------------------------7|---------------------------------- |-------12------------------14--------9h11-9--------------- |----12------------------14------------------12-9---------- |-10-------10--10-10--12------12-12------------------------ |---------------------------------------------------------- |---------------------------------------------------------------- |-9-9--9--9-9--9-9-9---------7-6-7-----7--6-7---9-7-------------- |--------------------7h9----------------------------7h9---------- |------------------------7-7-------7-7------------------7-7------

www.rdrop.com/~mjames/sabbath/
найти лекарство
список лекарств






О сайтеАккордыХит-парадПоискУроки ФорумыИщу песню
ПрограммыСвежачок-сПодпискаСтатьи
Яндекс.Метрика