Басовая табулатура Black Sabbath | Dirty Women гитара табулатуры уроки тексты песен Black Sabbath текст lyrics песня аккорды песни ноты нота электрогитара струна  
   А Б В Г Д Е Ж З И К Л М Н О П Р С Т У Ф Х Ч Ш Ы Э Ю Я       Разные песни
1-9 A B C D E F G H I J K L M N O P Q R S T U V W Y Z      Все исполнители in english

    



группа Black Sabbath, Басовая табулатура песни Dirty Women

Продолжаем грести бабос на ботах в Telegram.
Только в этот раз есть вариант автоматизировать это дело, привлекая рефералов. Вы можете заработать если »

Группа: Black Sabbath - другие аккорды (243),   о группе (21 статей),   диски (20),   фотографии (152)
Басовая табулатура песни: Dirty Women
Просмотров: 1086
Прислал: Sabbath (sabbath54@mail.ru)




    
From - Michael James 
Dirty Women - Bass
Black Sabbath - Technical Ecstacy (1976)

|--------------------------------------------
|--------------------------------------------
|--------------------------------/8--7-------
|--5----3--------(3)/5mute--------------8----
"I need a lady to help me..."
|----------------------------------------------------------
|----------------------------------------------------------
|-5-5-5-5-3---3---5-5-5-5-3---3---5-5-5-5-3---3------------
|-----------5---5-----------5---5-----------5---5----------
Interlude:
|------------------------------------------------------------
|-----------8--------------------------------------5-------5-
|------7---------8------8---8------5---(3)h5-----5---5---5---
|-10------------------6---6----3-------------3---------3-----
|-------------------------------------------------------------------
|--------------------------------------------------10h12--10--------
|-----10---(8)h10---------7-8-7------------------------------12-10-
|-8---------------8-----8-------8---10---8h10--8h10-----------------
w/ solo:
|-----------------------------------------------------------------------------
|-----------------------------------------------------------------------------
|-5-5-3-5------------1-1-1-3-3-3--3---3-5-5-3-5----------1-1-1-3-3-3--3---3-

Продолжаем грести бабос на ботах в Telegram.
Только в этот раз есть вариант автоматизировать это дело, привлекая рефералов. Вы можете заработать если »

|------------1-3-1-3-----------------5-------------1-3-1-3----------------5--- Double Time: |---------------------------------------------------------- |-12--------------------7---10-----------------5----------- |----12----------7-8-10--------10--------5-6-8------------- |-------10--8-10------------------8--6-8------------------- |---------------------------------------- |-----------5h7p5h7-----------5h7p5h7---- |-------5h7---------------5h7------------ |-5--5--------------5--5----------------- |----------------------------- |----------------------------- |----------5-5-5-5-5-5-5-5---- |-5--5------------------------ |----------------------------------------------------------------------------- |----------------------------------------------------------------------------- |-5-5-3-5------------1-1-1-3-3-3--3---3-5-5-3-5----------1-1-1-3-3-3--3---3- |------------1-3-1-3-----------------5-------------1-3-1-3----------------5--- Slow: |--------------------------------------------------------------- |--------------------------------------------------------------- |------------------------------------------10-9-10-9-10-9-10-12- |-10-------8h10-8h10-8---8-8-8-7---7-7-7------------------------

www.rdrop.com/~mjames/sabbath/
искать в аптеке
список лекарств






О сайтеАккордыХит-парадПоискУроки ФорумыИщу песню
ПрограммыСвежачок-сПодпискаСтатьи
Яндекс.Метрика