Басовая табулатура Black Sabbath | Back Street Kids гитара табулатуры уроки тексты песен Black Sabbath текст lyrics песня аккорды песни ноты нота электрогитара струна  
   А Б В Г Д Е Ж З И К Л М Н О П Р С Т У Ф Х Ч Ш Ы Э Ю Я       Разные песни
1-9 A B C D E F G H I J K L M N O P Q R S T U V W Y Z      Все исполнители in english

    



группа Black Sabbath, Басовая табулатура песни Back Street Kids

Продолжаем грести бабос на ботах в Telegram.
Только в этот раз есть вариант автоматизировать это дело, привлекая рефералов. Вы можете заработать если »

Группа: Black Sabbath - другие аккорды (243),   о группе (21 статей),   диски (20),   фотографии (152)
Басовая табулатура песни: Back Street Kids
Просмотров: 1526
Прислал: Sabbath (sabbath54@mail.ru)




    
from - KtuluKid@aol.com
Back Street Kids - Bass
Black Sabbath - Technical Ecstasy (1976)
         I'm just another back street kid...
      ||---------------------------------------------9h11-||
      ||--------------------------------------------------||
      ||-7--7-7-7--7-7-7--7-7-7--7-7-7--7-7-7--7-7-7------||
      ||--------------------------------------------------||
      Nobody I know, will ever...
      ----------------------------6----6----------------||--
      -----2--------1-2-3-4---4h6----6---6---2-----0----||--
      -4-----4-3-2----------4--------------2----2----4--||--
      --------------------------------------------------||--
      Middle section
      ------------------------------------------------|-----
      --0-----------0---------------0--------------0--|-----
      ------------------------------------------------|-----
      ------------------------------------------------|-10--
      Living life comes easy when...

Продолжаем грести бабос на ботах в Telegram.
Только в этот раз есть вариант автоматизировать это дело, привлекая рефералов. Вы можете заработать если »

-------------------8/9-------------------------------- ----12-12----12----9/10----------------12----12----12- -12-------12----12------7--8--10----12----12----12---- ---------------------------------10------------------- solo..just groove aroung this -8/9------------|--------------------------------8/9-- -9/10-----------|----------12-12-12--12-12-10----9/10- ------7--8--10--|----10h12--------------------12------ ----------------|-10---------------------------------- ----------|h=hammer-on ----------|/=slide up -7--8--10-| ----------|back to main riff and finesh it up..

www.yellowriver.0catch.com
лекарство в аптеке
список лекарств






О сайтеАккордыХит-парадПоискУроки ФорумыИщу песню
ПрограммыСвежачок-сПодпискаСтатьи
Яндекс.Метрика