Басовая табулатура Black Sabbath | It`s Alright гитара табулатуры уроки тексты песен Black Sabbath текст lyrics песня аккорды песни ноты нота электрогитара струна  
   А Б В Г Д Е Ж З И К Л М Н О П Р С Т У Ф Х Ч Ш Ы Э Ю Я       Разные песни
1-9 A B C D E F G H I J K L M N O P Q R S T U V W Y Z      Все исполнители in english

    



группа Black Sabbath, Басовая табулатура песни It`s Alright

Продолжаем грести бабос на ботах в Telegram.
Только в этот раз есть вариант автоматизировать это дело, привлекая рефералов. Вы можете заработать если »

Группа: Black Sabbath - другие аккорды (243),   о группе (21 статей),   диски (20),   фотографии (152)
Басовая табулатура песни: It`s Alright
Просмотров: 1134
Прислал: Sabbath (sabbath54@mail.ru)




    
From - e_laze@yahoo.se
It's Alright - Bass
Black Sabbath - Technical Ecstasy (1970)

        Main riff - start when drums come in
||------------------------------------------------------------------|
||----10-10----10-10---10-9-9---9-9---9-7-7---7-7---7-5-5---5-5---5-|
||----------10----------------9-------------7-------------------5---|
||------------------------------------------------------------------|

           2x                   2x
-------------|--------------------||
-3-3---3---3-|-10-10----10----10--||
-----3---3---|-------10----10-----||
-------------|--------------------||

        Guitar solo      |1.
||-----------------------|-------------------------------------------

Продолжаем грести бабос на ботах в Telegram.
Только в этот раз есть вариант автоматизировать это дело, привлекая рефералов. Вы можете заработать если »

||-----3-------10-------|-3--------3---10---------10---3--------3--- ||-----------------------|-------3-------------10-------------3------ ||-----------------------|------------------------------------------- |2. || ------------------------|------------------------------------------|| -8--------8--5--------5-|-10---------10--12---------12--5--------5-|| -------8-----------5----|--------10-------------12------------5----|| ------------------------|------------------------------------------|| Play the main riff a couple of times, then the riff behind the guitar solo and then back to main riff with guitar solo lines. It's pretty simple.

www.rdrop.com/~mjames/sabbath/
искать в аптеке
список лекарств






О сайтеАккордыХит-парадПоискУроки ФорумыИщу песню
ПрограммыСвежачок-сПодпискаСтатьи
Яндекс.Метрика