Басовая табулатура Black Sabbath | Gypsy гитара табулатуры уроки тексты песен Black Sabbath текст lyrics песня аккорды песни ноты нота электрогитара струна  
   А Б В Г Д Е Ж З И К Л М Н О П Р С Т У Ф Х Ч Ш Ы Э Ю Я       Разные песни
1-9 A B C D E F G H I J K L M N O P Q R S T U V W Y Z      Все исполнители in english

    



группа Black Sabbath, Басовая табулатура песни Gypsy

Продолжаем грести бабос на ботах в Telegram.
Только в этот раз есть вариант автоматизировать это дело, привлекая рефералов. Вы можете заработать если »

Группа: Black Sabbath - другие аккорды (243),   о группе (21 статей),   диски (20),   фотографии (152)
Басовая табулатура песни: Gypsy
Просмотров: 1494
Прислал: Sabbath (sabbath54@mail.ru)




    
From - e_laze@yahoo.se
Gypsy - Bass
Black Sabbath - Technical Ecstasy (1976)

        Intro               "She was a gypsy..." 1st part
||--------------------------||---------------------------------------|
||-----------6--------------||---------------------1--0-----3--------|
||--------6-----8----8p6h8--||---3--1--0--1-----1--------3-----3-----|
||---6----------------------||---------------1-----------------------|

                                2nd part, 2nd time after vocals enter
2nd part                        play one octave higher:
|-------------------------------|------------------8--7------10----||
|--------------------1--0-----3-|-10--8--7--8---8--------10---------||
|--3--1--0--1-----1--------3----|-------------8---------------------||
|--------------1----------------|-----------------------------------||

"She took me to..."
||------------------------------------------------------------------||
||------------------------------------------------------------------||
||----5---------7--5----------7--5----------5h7--5-9-7-5------------||
||---------5--7----------5--7----------5--7-------------------------||

Продолжаем грести бабос на ботах в Telegram.
Только в этот раз есть вариант автоматизировать это дело, привлекая рефералов. Вы можете заработать если »

"She took my hand..." 2x ||-------------------------------|----------------------------------|| ||-------------------------------|----------------------------------|| ||------------7--------------5---|----------------------------------|| ||---5--7--8--------5--7--8------|---5--7--8--9-----5--7--8--8------|| "So you wanna be..." Fill - try variations of this: ||---------------------------------------|--------------------------|| ||---7--7-7-7--7-7-7--7-7-7--7-----------|------------7-5-7-9-------|| ||------------------------------8--8-8-8-|-7h8p7-8-10---------------|| ||---------------------------------------|--------------------------|| Ending for previous riff and later ending the song - play E... ||------------------------------------------------------------------|| ||------------------------------------7-----------------------------|| ||---7-7-7-7-7-7-7-7-7-7-7-7-7-7-7----------------------------------|| ||------------------------------------------------------------------||

www.rdrop.com/~mjames/sabbath/
найти лекарство
список лекарств






О сайтеАккордыХит-парадПоискУроки ФорумыИщу песню
ПрограммыСвежачок-сПодпискаСтатьи
Яндекс.Метрика