Табулатура Black Sabbath | Digital Bitch гитара табулатуры уроки тексты песен Black Sabbath текст lyrics песня аккорды песни ноты нота электрогитара струна  
   А Б В Г Д Е Ж З И К Л М Н О П Р С Т У Ф Х Ч Ш Ы Э Ю Я       Разные песни
1-9 A B C D E F G H I J K L M N O P Q R S T U V W Y Z      Все исполнители in english

    



группа Black Sabbath, Табулатура песни Digital Bitch

Продолжаем грести бабос на ботах в Telegram.
Только в этот раз есть вариант автоматизировать это дело, привлекая рефералов. Вы можете заработать если »

Группа: Black Sabbath - другие аккорды (243),   о группе (21 статей),   диски (20),   фотографии (152)
Табулатура песни: Digital Bitch
Просмотров: 1286
Прислал: Sabbath (sabbath54@mail.ru)




    
from - Michael James 
Digital Bitch
Black Sabbath - Born Again (1983)

|----------------------------------------------------------
|----------------------------------------------------------
|------2-----5-----4-7-5h7p5p4-----2-----5-----4-7-5-------
|------2-----5-----4-7-5h7p5p4-----2-----5-----4-7-5-------
|--0-0---0-0---0-0-------------0-0---0-0---0-0-------------
|----------------------------------------------------------

"keep away from..."
|--------------------------||----------------------------
|--------------------------||----------------------------
|------------------5--7----||---5---7-------5---7--------
|------------------5--7----||---5---7-------5---7--------

Продолжаем грести бабос на ботах в Telegram.
Только в этот раз есть вариант автоматизировать это дело, привлекая рефералов. Вы можете заработать если »

|-5-5-5-5-5-5-5-5--3--5----||---3---5-------3---5-------- |-3-3-3-3-3-3-3-3----------||---------------------------- "maybe she could..." |---------------------------------------------------------- |---------------------------------------------------------- |--7----10-----9-----8----7----10-----9-----8-------------- |--7----10-----9-----8----7----10-----9-----8-------------- |--5-----8-----7-----6----5-----8-----7-----6-------------- |----------------------------------------------------------

www.rdrop.com/~mjames/sabbath/
найти лекарство
список лекарств






О сайтеАккордыХит-парадПоискУроки ФорумыИщу песню
ПрограммыСвежачок-сПодпискаСтатьи
Яндекс.Метрика