Табулатура Black Sabbath | Disturbing The Priest гитара табулатуры уроки тексты песен Black Sabbath текст lyrics песня аккорды песни ноты нота электрогитара струна  
   А Б В Г Д Е Ж З И К Л М Н О П Р С Т У Ф Х Ч Ш Ы Э Ю Я       Разные песни
1-9 A B C D E F G H I J K L M N O P Q R S T U V W Y Z      Все исполнители in english

    



группа Black Sabbath, Табулатура песни Disturbing The Priest

Продолжаем грести бабос на ботах в Telegram.
Только в этот раз есть вариант автоматизировать это дело, привлекая рефералов. Вы можете заработать если »

Группа: Black Sabbath - другие аккорды (243),   о группе (21 статей),   диски (20),   фотографии (152)
Табулатура песни: Disturbing The Priest
Просмотров: 1259
Прислал: Sabbath (sabbath54@mail.ru)




    
from - Michael James 
Disturbing The Priest
Black Sabbath - Born Again (1983)

|---------------------7-----------7------------------------
|-----------------------5-----------5----------------------
|--9---7---5---4-----------8----------10-------------------
|--9---7---5---4-----------8----------10-------------------
|--7---5---3---2-----------6-----------8-------------------
|----------------------------------------------------------

|----------------------------------------------------------
|----------------------------------------------------------
|----------------------------------------------------------
|--9-9-9-9---9-9-9-9---9-9-9---5--------7---9--------------
|--7-7-7-7---7-7-7-7---7-7-7---3--------5---7--------------
|----------------------------------------------------------

Продолжаем грести бабос на ботах в Telegram.
Только в этот раз есть вариант автоматизировать это дело, привлекая рефералов. Вы можете заработать если »

|---------------------------------------------------------- |---------------------------------------------------------- |---9---12-------9---7--------9--12--------7--7------------ |---9---12-------7---7--------9--12--------5--7------------ |---7---10-----------5--------7--12-----------5------------ |---------------------------------------------------------- |------------------------------------------------- |-------------------------------------------------- |-------------------------------------------------- |--9-9-9-9---9-9-9-9---9-9-9---4----4--2----------- |--7-7-7-7---7-7-7-7---7-7-7---2----2--0--5--4----- |-----------------------------------------3--2-----

www.black-sabbath.com
найти лекарство
список лекарств






О сайтеАккордыХит-парадПоискУроки ФорумыИщу песню
ПрограммыСвежачок-сПодпискаСтатьи
Яндекс.Метрика