Табулатура Black Sabbath | Lonely Is The Word гитара табулатуры уроки тексты песен Black Sabbath текст lyrics песня аккорды песни ноты нота электрогитара струна  
   А Б В Г Д Е Ж З И К Л М Н О П Р С Т У Ф Х Ч Ш Ы Э Ю Я       Разные песни
1-9 A B C D E F G H I J K L M N O P Q R S T U V W Y Z      Все исполнители in english

    



группа Black Sabbath, Табулатура песни Lonely Is The Word

Продолжаем грести бабос на ботах в Telegram.
Только в этот раз есть вариант автоматизировать это дело, привлекая рефералов. Вы можете заработать если »

Группа: Black Sabbath - другие аккорды (243),   о группе (21 статей),   диски (20),   фотографии (152)
Табулатура песни: Lonely Is The Word
Просмотров: 1097
Прислал: Sabbath (sabbath54@mail.ru)




    
from- Michael James 
Lonely Is The Word
Black Sabbath - Heaven And Hell (1980)

|---------------------------------------------------------------
|---------------------------------------------------------------
|-2---2-2------2-2----2-2-2-5---2---2-2-------2-2-------2-2-2---
|-2---2-2------2-2----2-2-2-5---2---2-2-------2-2-------2-2-2---
|---0-----(0)0-----(0)------------0-----(0)-0-----(0)-0-------3-
|---------------------------------------------------------------
"oh....lonely is the word..."
|--1-----------0------------------3------------1---1------0----------
|--1-----------0------------------0------------1---1------0----------
|--2-----------1----------2-------0------------2---2------1------2---
|--3------2----2----------2--2-2--0------------3---3--2---2------2---
|---------2---------------0--0-0-----------------------2----------0---
|---------0--0--------(0)---------3--0-3-0-3-5---------0-0-----0------
solo:
|-------------------------------12---10---8---7------------
|-10/13---10------10--13--15----------------------10---8---
|---------12^-----------------9----7----5---4--------------
|--7/11---------7-----11--12--------------------7----5-----
|----------------------------------------------------------
|----------------------------------------------------------
|----------------------------------------10----------------
|------10-10-10-----10-10-10------10--12----12-13-8/10-----
|-----------------------------------------7----------------

Продолжаем грести бабос на ботах в Telegram.
Только в этот раз есть вариант автоматизировать это дело, привлекая рефералов. Вы можете заработать если »

|-5/7--7--7--7--5/7--7--7--7--5/7--7---9-----9-10-5/7------ |---------------------------------------------------------- |---------------------------------------------------------- |---------10-12--8-10-------------------------------------- |---10-12-------------12-13-12-10--8-10-13-10-8/10-10------ |----------7--9--5--7-------------------------------------- |-7-----9--------------9-10--9--7--5--7-10--7-5/7---7------ |---------------------------------------------------------- |---------------------------------------------------------- |-----8---10---12----17----17-------10-----12---7---8------ |10-------------------------------------------------------- |---5---7----9----14----14----14--7----7/9----4---5-------- |-7-------------------------------------------------------- |---------------------------------------------------------- |---------------------------------------------------------- |-----------8---------------------------------------------- |10----8-10---10------------------------------------------- |-----------5---------7^-7-5------------------------------- |-7----5--7----7------7^-7-5-5----------------------------- |----------------------------5----------------------------- |---------------------------------------------------------- ***the solo is based in A.Im not going to tab that one***

www.rdrop.com/~mjames/sabbath/
лекарство в аптеке
список лекарств






О сайтеАккордыХит-парадПоискУроки ФорумыИщу песню
ПрограммыСвежачок-сПодпискаСтатьи
Яндекс.Метрика