Табулатура Black Sabbath | Die Young  (2) гитара табулатуры уроки тексты песен Black Sabbath текст lyrics песня аккорды песни ноты нота электрогитара струна  
   А Б В Г Д Е Ж З И К Л М Н О П Р С Т У Ф Х Ч Ш Ы Э Ю Я       Разные песни
1-9 A B C D E F G H I J K L M N O P Q R S T U V W Y Z      Все исполнители in english

    



группа Black Sabbath, Табулатура песни Die Young (2)

Продолжаем грести бабос на ботах в Telegram.
Только в этот раз есть вариант автоматизировать это дело, привлекая рефералов. Вы можете заработать если »

Группа: Black Sabbath - другие аккорды (243),   о группе (21 статей),   диски (20),   фотографии (152)
Табулатура песни: Die Young (2)
Просмотров: 881
Прислал: Sabbath (sabbath54@mail.ru)




    
from- Michael James 

Die Young
Black Sabbath - Heaven And Hell (1980)

|----------------------------------------------------------------------------
|-15^----12h15p12------------------------------------------------------------
|-----------------14-12-14^---12h14p12-11--12--------------------------------
|----------------------------------------------14--12h14p12------------------
|--------------------------------------------------------------1412---------
|--------------------------------------------------------------------14--12--

|-12-12-----14-14-----15-15-----17-17-----19-19-------------
|-15^15^----17^17^----18^18^----20^20^----22^22^------------
|-----------------------------------------------------------
|-----------------------------------------------------------
|-------------(w/ long delay: listen to song)---------------
|-----------------------------------------------------------

|-------------------------------------------------------------
|-------------------------------------------------------------
|--9-----12-14-1211--9-----5--7--1211--9--------------------
|--9-----12-14-1211--9-----5--7--1211--9--------------------
|--7-----10-12-109---7-----3--5--109---7-----7---10-9-7-----
|---------------------------------------------------------10--
 
|-----12--------15-14-12------------------------------------
|--12----15^-------------15-12------------12----------------
|------------------------------14^^12--14----12-------------
|-----------------------------------------------14----------
|-----------------------------------------------------------
|-----------------------------------------------------------
|----15-121512------15-121512---12151215121512151215121512151215--
|-15^---------15-15^---------15-----------------------------------
|-----------------------------------------------------------------
|-----------------------------------------------------------------

Продолжаем грести бабос на ботах в Telegram.
Только в этот раз есть вариант автоматизировать это дело, привлекая рефералов. Вы можете заработать если »

|----------------------------------------------------------------- |----------------------------------------------------------------- gather the wind... |---------------------------------------------------------------------- |---------------------------------------------------10^^8-------------- |--9---------------5----7----9-----12-14-1211--9----------9--7-----9-- |--9---------------5----7----9-----12-14-1211--9----5-4-2------9-7-9-- |--7---------------3----5----7-----10-12-109---7----------5--2-0---7-- |-----------------------------------------------------------------3-0-- (1) (2) |----------------------------|----15------------15-----17^-17^-17^--- |----------------------------|-15^--^15^---15/17--------------------- |----------------------------|--------------------------------------- |----------7-----------------|--------------------------------------- |-10-9-7-----10-9-10-9-------|--------------------------------------- |----------------------10^---|--------------------------------------- so live for today... |------------------------------------------------------------------ |------------------------------------------------------------------ |-7--7-----7--7--5-----7--7-----------------------12-11--12-7---9-- |-5--7-----5--7--5-----5--7-----------------------12-11--12-7---9-- |----5--------5--3--------5------10-9-7-9-7-------10--9--10-5---7-- |-------------------------------------------10-7------------------- (interlude) |---------------------------------------------7------------- |-----8-----7-------7-----------8-----7---------8----------- |-------9-----9-------9-----------9-----9---------9--------- |---------9-----9-------9-----------9-----9---------9------- |-7-7-------------7---------7-7-------------7---------7----- |--------------------------------------

www.rdrop.com/~mjames/sabbath/
искать в аптеке
список лекарств






О сайтеАккордыХит-парадПоискУроки ФорумыИщу песню
ПрограммыСвежачок-сПодпискаСтатьи
Яндекс.Метрика