Табулатура Black Sabbath | Heaven And Hell  (2) гитара табулатуры уроки тексты песен Black Sabbath текст lyrics песня аккорды песни ноты нота электрогитара струна  
   А Б В Г Д Е Ж З И К Л М Н О П Р С Т У Ф Х Ч Ш Ы Э Ю Я       Разные песни
1-9 A B C D E F G H I J K L M N O P Q R S T U V W Y Z      Все исполнители in english

    



группа Black Sabbath, Табулатура песни Heaven And Hell (2)

Работа в Европе для граждан РФ, Украины, СНГ

  • минимальная зарплата $500.
  • виза и контракт на полгода, возможно продление
  • проживание оплачивает работодатель
  • нужен только загранпаспорт
  • оформление 190 €
  • данное предложение - отличная возможность эмигрировать в Европу и закрепиться здесь навсегда.

  • Мы свяжемся с Вами по WhatsApp или Viber и ответим на любые вопросы.
    на нашем сайте можно почитать подробнее »

    Группа: Black Sabbath - другие аккорды (243),   о группе (21 статей),   диски (20),   фотографии (152)
    Табулатура песни: Heaven And Hell (2)
    Просмотров: 1402
    Прислал: Sabbath (sabbath54@mail.ru)




        
    From - Jim Struyve Gent  
           & Michael James 
    Black Sabbath
    Heaven And Hell - Heaven And Hell (1980)
    Figure 1
    |--------------------------------|--------------------------------|
    |--------------------------------|----------------3-3----3--------|
    |--------------------------------|----------------2-2--x-2--------|
    |9---------------11------12------|5---------------0-0--x-0--------|
    |7---------------9-------10------|3-------------------------------|
    |--------------------------------|--------------------------------|
    
    |--------------------------------|--------------------------------|
    |--------------------------------|--------------------------------|
    |--------------------------------|--------------------------------|
    |9---------------11------12------|14--1211-9----------------------|
    |7---------------9-------10------|12--10-9-7----------------------|
    |--------------------------------|--------------------------------|
    
    |--------------------------------|--------------------------------|
    |--------------------------------|----------------3-3----3-3------|
    |--------------------------------|----------------2-2----2-2------|
    |9---------------11------12------|5---------------0-0----0-0------|
    |7---------------9-------10------|3-------------------------------|
    |--------------------------------|--------------------------------|
                                                              H   H
    |--------------------------------|--------------------------------|
    |--------------------------------|--------------------------------|
    |--------------------------------|---------------------------___--|
    |9---------------11------12------|14--1211-9-------------___-0-2--|
    |7---------------9-------10------|12--10-9-7-------------0-2------|
    |--------------------------------|--------------------------------|
    
    Figure 2
    |--------------------------------|--------------------------------|
    |--------------------------------|--------------------------------|
    |--------------------------------|--------------------------------|
    |--------------------------------|--------------------------------|
    |--------------------------------|--------------------------------|
    |0---0-0-0---0-0-0---0-0-0---0-0-|0---0-0-0---0-0-0---0-0-0---0-0-|
            C                D
    So it's on and on and on,  it's heaven and hell
    Oh, well.
    
    Figure 3 (backing guitar plays fig 2)
                                S
    |--------------------------------|------------------------------------|
    |------------------------12-----|------------------------------------|
    |------------------------12-----|------------------------------------|
    |------------------------12-----|-------------7----------------------|
    |--------9-10-7------------------|--------9-10--------10-9-7----------|
    |-0-0-0----------0--0-0----------|-0--0-0-----------0-----------------|
                                S
    |--------------------------------|------------------------------------|
    |------------------------12-----|------------------------------------|
    |------------------------12-----|------------------------------------|
    |------------------------12-----|-------------7----------------------|
    |--------9-10-7------------------|--------9-10--------10-9-7----------|
    |-0-0-0----------0--0-0----------|-0--0-0-----------0-----------------|
    
    |--------------------------------|--------------------------------|
    |--------------------------------|--------------------------------|
    |--------------------------------|--------------------------------|
    |-9------------------------------|--------------------------------|
    |-7------------------------------|--------------------------------|
    |--------------------------------|--------------------------------|
             C                D
    So  it's on and on and on,
             C                D
    Oh, it's on and on and on.
             C                D
    It  goes on and on and on.  Heaven and Hell
    
    This is the mini-bridge in the middle where Dio is singing 
    "Ooooohhh...oohhh..ohh....yeah yeah yeaaaaaahhhh..."
    |-5--|-----|--5--|--3--|------|-----|--5-----------------------|
    |-8--|--7--|--6--|--5--|--8---|--7--|--5-----------------------|
    |-5--|--7--|--5--|--5--|--7---|--7--|--6-----------------------|
    |-5--|--7--|--7--|--5--|--9---|--7--|--7-----------------------|
    |-7--|--5--|--5--|--3--|--10--|--5--|--7-----------------------|
    |-5--|-----|--5--|--3--|--7---|-----|--5-----------------------|then go to next verse.
    
             C                D                 fig2
    And it's on and on and on, on and on and on and on and on and on
    on and on and on and on and on and on.
    continue Fig2
    Solo1
       B  gradually release bend            P
    |----------|----------|----------|----------|----------|
    |------____|______ ---|----------|----------|-12------|
    |-___-/----|---------|----------|-----___--|-12------|
    |-7(9)-----|------(7)-|----------|----14-12-|----------|
    |----------|----------|----------|----------|----------|
    |----------|----------|0---------|----------|----------|
     ~~~~      ~~~~     ~~~~      H           H            S
    |--------------------------------------|--------------------------|
    |--------------------------------------|--------------------------|
    |14-12----14-12-------12-----___--12---|-___----------------------|
    |------14-------14-14----12-12-14----12|12-14-14-14-14-----------|
    |--------------------------------------|--------------------------|
    |--------------------------------------|--------------------------|
    
                   B                                            H
    |----------|--____----|----------|--------------------------------------|
    |----------|-(15)17---|----------|12-15-15-12---------------------------|
    |----------|----------|----------|------------14-14-12-----___----------|
    |----------|----------|----------|---------------------14-12-14-14-12---|
    |----------|----------|----------|------------------------------------14|
    |----------|----------|----------|--------------------------------------|
    
                                      S          H        H       H
    |--------------------------------|---------------------------___--------|
    |--------------------------------|-------------------___-12-12-15-15-15-|
    |--------------------------------|----------___-12--12-14---------------|
    |--------------------------------|---12-12-12-14--14--------------------|
    |12-14-14-10-12-12-9-10-9-10-9-10|/14-----------------------------------|
    |--------------------------------|--------------------------------------|
       H
      ___         H          H           H     H
    |12-15-12-15-___------------------------------|
    |-----------12-15-15-15-___---------___-------|
    |----------------------12-14-14-14-12-14--___-|
    |----------------------------------------12-14|
    |---------------------------------------------|
    |---------------------------------------------|
    
       H    H                            B
    |---------------------------------|-------------------------12---|
    |------___------------------------|-___--12-15--12-15--12-15--12-|
    |-___-12-14-14-14-12---------12-12|14(16)-----14-----14----------|
    |12-14---------------14-14-14-----|------------------------------|
    |---------------------------------|------------------------------|
    |---------------------------------|------------------------------|
                                                   S
                   B                              ___
    |---12-----|--___-----14-15-17-15-|----------15/17--|
    |-15-------|-15(17)-17------------|-17-17-17--------|
    |----------|----------------------|-----------------|
    |----------|----------------------|-----------------|
    |----------|----------------------|-----------------|
    |----------|----------------------|-----------------|
       B      B
      ___    ___                             B
    |17(19)-17(19)-17-15----15------------|-___----------------------|
    |--------------------19----19-17-15-17|17(20)---------------17---|
    |-------------------------------------|------------------16----16|
    |-------------------------------------|--------------------------|
    |-------------------------------------|--------------------------|
    
    Узнай ВСЕ о своем друге в ВК или FB
    |-------------------------------------|--------------------------| B |---___----|-----|-----|-----|-----|-----|-----|-----|-----| |--15(17)--|-----|-----|-----|-----|-----|-----|-----|-----| |----------|-----|-----|-----|-----|-----|-----|-----|-----| |----------|-----|-----|-----|-----|-----|-----|-----|-----| |----------|-----|-----|-----|-----|-----|-----|-----|-----| |----------|-----|-----|-----|-----|-----|-----|-----|-----| gradually release bend B~~~~~~ B_______________ B S |----------|--19------|-/--------|---------|--___-----|22--___---| |---___----|----17-20-|-20(22)---|------20--|-22(24)---|---17/20--| |--19(21)--|19--------|----------|----------|----------|----------| |----------|----------|----------|----------|----------|----------| |----------|----------|----------|----------|----------|----------| |----------|----------|----------|----------|----------|----------| ~~~~~~~~~~~ B~~~~~~~~~ B H P |---___----|----------|--______-------------|------------______---| |--20(22)--|----------|-/--------15--------|-----------/--------| |----------|-----21---|-19----21----16-15-14|-------12--12-14-12--| |----------|---21--21-|---------------------|---------14--------14| |----------|----------|---------------------|---------------------| |----------|----------|---------------------|---------------------| H S ________ B ~~~~~~~~ / ___ |-------------------14-15--|-14---15/17-----15-17|-(19)-15--------| |-------------12-15--------|---------------------|--------17------| |-------12-14--------------|---------------------|----------------| |-12-14--------------------|---------------------|----------------| |--------------------------|---------------------|----------------| |--------------------------|---------------------|----------------| ~ R B R B R B R B R B R B R B S _____________________________________________ |----------|/-----------------------|----------------------------| |--20/22---|(24)22(24)22(24)22(24)22|(24)22(24)22(24)22(24)-------| |----------|------------------------|-----------------------------| |----------|------------------------|-----------------------------| |----------|------------------------|-----------------------------| |----------|------------------------|-----------------------------| Em5 say that life's a carrousel, D/F# spinning fast you've got to ride it well. G The world if full of kings and queens who D/A blind your eyes then steal your dreams. Em5 It's heaven and hell. D/F# Oh well . Em5 And they'll tell you that black is really white, D/F# the moon is just the sun at night; G And when you walk in golden halls, you D/A get to keep the gold that falls. Em5 It's heaven and hell. D/F# No,no Em5 Fool,fool D/F# G You got to bleed for the dancer. D/A Em5 Fool,fool D/F# G Look for the answer. D/A Em5 Fool,fool,fool. Slower B R B B |----------|----------|----------|--------------------------------| |----------|----------|----------|--------------------------------| |--________|__________|______----|--------------------------------| |-/--------|----------|---------|--------------------------------| |-5--(7)---|-5--(7)---|-5--(7)---|--------------------------------| |----------|----------|----------|--------------------------------| ACOUSTIC OUTRO: ================= from - Anssi Jauhiainen tune both guitars 1/2 step down gtr. 1 5:58 (0:57 left) |----------------8-7------------------7----7-8-7------------------------ |--here is-----------10-8-7-------------10-------10-8-10-7-8-10-7---7-8- |--few notes----------------9-9h11h12-----------------------------9----- |--that I can't--------------------------------------------------------- |--hear----------------------------------------------------------------- |----------------------------------------------------------------------- End |-7-----------10-8-7------7-- |----------------------------- |---8-7---7-8--------8-10---- |---------10------------------ |-------9-------------------- |-9h11h12----(repeat 4 times)- |---------------------------- |----------------------------- |---------------------------- |----------------------------- |---------------------------- |----------------------------- 6:13 (0:42 left) |---------------------8-7-------------------8-7----------10-8-7------7-- |-10-8-787---7---10-8-----10-8-7-8-10---7-8-----10-8-6----------8-10---- |----------9---9----------------------9----------------9---------------- |----------------------------------------------------------------------- |----------------------------------------------------------------------- |----------------------------------------------------------------------- 6:28 (0:27 left) |----------87----7-------------------7-8-7-------------------------- |-10-8-7------10---8-10---78-7---7-8-------10-8-7-------7-8-10-8-7-- |--------9--------------9------9------------------(9)-9------------- |------------------------------------------------------------------- |------------------------------------------------------------------- |------------------------------------------------------------------- 6:41 (0:14 left) |-7--------8-7--/-------------------------- |---10-8-7-----|10-8-7----------10-7h8h10-|- and so on :) |---------------------9-9h11h12---------/-- |------------------------------------------- |------------------------------------------- |------------------------------------------- gtr. 2 |---0-----0-----0-----0-------0-----0-------0-----0------0--------- |------------------------------------------------------------------ |-----0-----0-----0-----0-------0-----0-------0-----0------0------- |-------------------9-----9h10----7-----10p9-----------9-7--------- |-7-----9-----10--------------------------------10----------------- |------------------------------------------------------------------ |-------0--------0-----0-----0-----0------------------------------- |------------------------------------------------------------------ |---------0--------0-----0-----0-----0----------------------------- |-----9------9----------------------------------------------------- |-------9------7-----7-----7-----7--------------------------------- |------------------------------------------------------------------

    www.rdrop.com/~mjames/sabbath/
    найти лекарство
    список лекарств






    О сайтеАккордыХит-парадПоискУроки ФорумыИщу песню
    ПрограммыСвежачок-сПодпискаСтатьи
    Яндекс.Метрика