Табулатура Black Sabbath | Lady Evil гитара табулатуры уроки тексты песен Black Sabbath текст lyrics песня аккорды песни ноты нота электрогитара струна  
   А Б В Г Д Е Ж З И К Л М Н О П Р С Т У Ф Х Ч Ш Ы Э Ю Я       Разные песни
1-9 A B C D E F G H I J K L M N O P Q R S T U V W Y Z      Все исполнители in english

    



группа Black Sabbath, Табулатура песни Lady Evil

Продолжаем грести бабос на ботах в Telegram.
Только в этот раз есть вариант автоматизировать это дело, привлекая рефералов. Вы можете заработать если »

Группа: Black Sabbath - другие аккорды (243),   о группе (21 статей),   диски (20),   фотографии (152)
Табулатура песни: Lady Evil
Просмотров: 1025
Прислал: Sabbath (sabbath54@mail.ru)




    
from- Michael James 
Lady Evil
Black Sabbath - Heaven And Hell (1980)

|----------------------------------------------------------
|----------------------------------------------------------
|-----3--3-----3----3/5-----------3--3-----3---3-----------
|-----3--3-----3----3/5-----------3--3-----3---3--5--------
|----------(5)-------------------------(5)--------5--------
|-3-3-------------------0-1-2-3-3--------------------------

|----------------------------------------------------------
|----------------------------------------------------------
|----------------3------5----------------------------------
|----------5-----3------5----------------------------------
|----------5-----------------------------------------------
|-0--1--2--------------------------------------------------
"There's a place..."
|----------------------------------------------------------
|----------------------------------------------------------
|-----3--3-------3--6p5-3---------3--3-------3--6p5-3------
|-----3--3----5--3--6p5-3-3h5-(5)-3--3----5--3--6p5-3-3h5--
|-------------5-----------3h5-(5)---------5-----------3h5--
|-3-3------------------------------------------------------
"Lady Evil..."              "She's a Magical..."
|-------------------------|------------------------------------
|-------------------------|------------------------------------
|-3-----------------------|-5-5-5-5--3-------------------------
|-3--------5--------------|-5-5-5-5--3--3--5-------------------
|-1--------5--------------|-3-3-3-3--1--3--5-------------------
|----------3--------------|-------------1--3-------------------
|                         | 
|-------------------------|---------------------------------
|-------------------------|---------------------------------
|-------------------------|---------------------------------
|-------------------------|---------------------------------
|-------------------------|---------------------------------
|----------3--3p1-3-3p1-3-|---------------------------------
"Lady evil.."        "Evil in..."    
|----------------------------------------------------------

Продолжаем грести бабос на ботах в Telegram.
Только в этот раз есть вариант автоматизировать это дело, привлекая рефералов. Вы можете заработать если »

|---------------------------------------------------------- |--------3------------------------------------------------- |-3--5---3-----------3------------------------------------- |-3--5---1-----------3----3-3-3-3-3-3-3-------------------- |-1--3---------------1----1-1-1-1-1-1-1-------------------- |---------------------------------------------------------- |---------------------------------------------------------- |----------5--5-------5---8p7-5---------------------------- |----------5--5----7--5---8p7-5--5h7-(7)------------------- |------------------7-------------5h7-(7)------------------- |--3-4-5-5------------------------------------------------- During solo/interlude: |-----|------|-----|-----|----|-----|-----|---------------- |-----|------|-----|-----|----|-----|-----|---------------- |--7--|------|--7--|-----|--9-|-----|--9--|--7--7-7-7-7-7-- |--7--|---7--|--7--|--7--|--9-|--9--|--9--|--7--7-7-7-7-7-- |--5--|---7--|--5--|--7--|--7-|--9--|--7--|--5--5-5-5-5-5-- |-----|---5--|-----|--5--|----|--7--|-----|---------------- |---------------------------------------------------------- |---------------------------------------------------------- |--------3--------------------------5------3--------------- |----5-3---5-------3---------5-3-5--5------3--------------- |--------------3h5---5------------------------------------- |--3-------------------6-5-3------------------------------- Ending: |--------------------- |------3-------------- |----3---6-5-3-------- |--5-----------5----- |--------------------- |--------------------- the fills and solo are played mostly in Gmin pentatonic, with some references to a D pentatonic

www.rdrop.com/~mjames/sabbath/
лекарство в аптеке
список лекарств






О сайтеАккордыХит-парадПоискУроки ФорумыИщу песню
ПрограммыСвежачок-сПодпискаСтатьи
Яндекс.Метрика