Табулатура Black Sabbath | Neon Knights гитара табулатуры уроки тексты песен Black Sabbath текст lyrics песня аккорды песни ноты нота электрогитара струна  
   А Б В Г Д Е Ж З И К Л М Н О П Р С Т У Ф Х Ч Ш Ы Э Ю Я       Разные песни
1-9 A B C D E F G H I J K L M N O P Q R S T U V W Y Z      Все исполнители in english

    



группа Black Sabbath, Табулатура песни Neon Knights

Продолжаем грести бабос на ботах в Telegram.
Только в этот раз есть вариант автоматизировать это дело, привлекая рефералов. Вы можете заработать если »

Группа: Black Sabbath - другие аккорды (243),   о группе (21 статей),   диски (20),   фотографии (152)
Табулатура песни: Neon Knights
Просмотров: 1250
Прислал: Sabbath (sabbath54@mail.ru)




    
from- Michael James 
Neon Knights
Black Sabbath - Heaven And Hell (1980)

|-----------------------------------|
|-----------------------------------|
|-----9-----9---9-------------------|
|-----9-----9---9-------------------|
|-----7-----7---7----------------9--|
|-0-0-0-0-0-0-0-0-0-0-0-0-0-0-10----|

|----------------------------------------------------|
|----------------------------------------------------|
|-7-------------7------9-----9---9-------------------|
|-7--11--9--11--7------9-----9---9-------------------|
|-5--11--9--11--5------7-----7---7----------------9--|
|----9---7--9------0-0-0-0-0-0-0-0-0-0-0-0-0-0-10----|
circles and rings....
|---------------------------------------------|
|---------------------------------------------|
|-2--------5--------7-------------------------|
|-2--------5--------7-------------------------|
|-0--------3--------5--------3-2-0---3-2-0----|
|----------------------------------3-------3--|

|-------------------------------------|
|-------------------------------------|
|-2--------5--------7------------7-9--|
|-2--------5--------7--------5-5-7-9--|
|-0--------3--------5--------5-5-5-7--|
|----------------------------3-3------|
bloody angels...
|-----------------------------------------------------|
|-----------------------------------------------------|
|-7--7-7--5-5-4----7--7-7--5-5-4-5--2--5p4-2-------2--|
|-7--7-7--5-5-4----7--7-7--5-5-4-5--2--5p4-2-------2--|
|-5--5-5--3-3-2----5--5-5--3-3-2-3--0--------0-3h4-0--|
|-----------------------------------------------------|

|---------------------------------------------------------|
|---------------------------------------------------------|
|-2----5p4--2----------2----5p4--2----------2-------------|
|-2----5p4--2----------2----5p4--2----------2-------------|
|-0------------0--3h4--0------------0--3h4--0-------------|
|---------------------------------------------------------|
solo:
|---------------------------------------------------------|
|-15^------15-12----------12-------------12---------------|
|----------------14-14-------12-12----14----14~~-12-------|
|---------------------------------------------------14-14-|
|---------------------------------------------------------|
|---------------------------------------------------------|
|------------------------------------------------------|
|------------------------------------------------------|
|-12---------------------12---------12-----------------|
|----14-14~~--12--12---14--14~~-------14-12--14-12--12-|
|---------------14-------------------------14-----14---|
|------------------------------------------------------|
|------------------------|----------------------------------|
|------------------------|----------------------------------|
|------------------------|----------------------------------|
|-------------9----------|-------------9--------------------|
|-14p12-10-12---12-10-12-|-10-12-10-12---12-10--------------|
|------------------------|---------------------12~~~--------|
|---------|--------------------|---------------------|---------
|---------|--------------------|------------------10-|---------
|---------|--------------------|-9-12p11-9--11-12----|-12-11-9-
|---------|---------------9-12-|---------------------|---------
|-------9-|-10-12--10-12-------|---------------------|---------
|-10-12---|--------------------|---------------------|---------
	      b		       release

Продолжаем грести бабос на ботах в Telegram.
Только в этот раз есть вариант автоматизировать это дело, привлекая рефералов. Вы можете заработать если »

----------|-17^~~~~~~~~~~~-|-19^^^^^^^^17-|-19^17-19^17-19^17-| ----10-12-|----------------|--------------|-------------------| -12-------|----------------|--------------|-------------------| ----------|----------------|--------------|-------------------| ----------|----------------|--------------|-------------------| ----------|----------------|--------------|-------------------| |-19^17-19^17--|-19^17-14-15------|---12-15-12~~--| |--------------|------------17~~--|-15------------| |--------------|------------------|---------------| |--------------|------------------|---------------| |--------------|------------------|---------------| |--------------|------------------|---------------| |-12----------------------|----------------------|---------- |---15-12---15-15p12---12-|----------------------|---------- |--------14^--------14----|-15-14-12----14-12----|---------- |-------------------------|----------14-------14-|---------- |-------------------------|----------------------|---------- |-------------------------|----------------------|---------- |-----------------------------|--------------------------| |-----12-15----12-------------|--------------------------| |-14^-------14----14-14p12----|-12-----------------------| |--------------------------14-|----14-12----14-12----12--| |-----------------------------|----------14-------14-----| |-----------------------------|--------------------------| |-----------------------|-----------------|--------------------------| |-----------------------|-----------------|--------------------------| |-----------------------|-----------------|--------------------------| |-----------------------|-----------------|---------------7h9--------| |-14-13-12-10---12-10-9-|-10-9------9-----|-7-9-10p9-7-10-----10p9-7-| |-----------------------|------12-----10--|--------------------------| |---------------------------------15p14-|-12------12-----------------------| |------------------------------12-------|----12h15--15p12--121512-12-------| |----------------------12h14p12---------|----------------14---------141214-| |----------12h14p12--14-----------------|----------------------------------| |-10h12/14------------------------------|----------------------------------| |---------------------------------------|----------------------------------| |----------------------------------------|---------------------------------| |----------------------------------------|---------------------------------| |-13h14p12--12---------------------------|---------------------------------| |---------14--14p12--14p12---------------|---------------------------10h12-| |------------------14-----14p1210h12p10-|--------------9-1012101214-------| |----------------------------------------|-121012-10h12--------------------| |----------------14-12-14-12h14-14/17-|-1715-12-17/19-17-15-15/19-| |----------15p12----------------------|----------------------------| |----121412---------------------------|----------------------------| |-14----------------------------------|----------------------------| |-------------------------------------|----------------------------| |-------------------------------------|----------------------------| |-17-15-17/19-17-15-17-|-17p15---17p15---17p15---15p12--12-| |----------------------|------17------17------17------15---| |----------------------|-----------------------------------| |----------------------|-----------------------------------| |----------------------|-----------------------------------| |----------------------|-----------------------------------| |------------------15-|---15p12---15p12--12--------------------| |-12---------15p12----|--------15------15--15p12-12-15p12---12-| |---14121412----------|----------------------------------14^---| |---------------------|----------------------------------------| |---------------------|----------------------------------------| |---------------------|----------------------------------------| |------------------------------------------| |------------------------------------------| |-14p12-14-14p12---------------------------| |---------------14p12-14p12----------------| |---------------------------14-1210h12p10-| |------------------------------------------|

www.rdrop.com/~mjames/sabbath/
искать в аптеке
список лекарств






О сайтеАккордыХит-парадПоискУроки ФорумыИщу песню
ПрограммыСвежачок-сПодпискаСтатьи
Яндекс.Метрика