Табулатура Black Sabbath | Swinging The Chain гитара табулатуры уроки тексты песен Black Sabbath текст lyrics песня аккорды песни ноты нота электрогитара струна  
   А Б В Г Д Е Ж З И К Л М Н О П Р С Т У Ф Х Ч Ш Ы Э Ю Я       Разные песни
1-9 A B C D E F G H I J K L M N O P Q R S T U V W Y Z      Все исполнители in english

    



группа Black Sabbath, Табулатура песни Swinging The Chain

Продолжаем грести бабос на ботах в Telegram.
Только в этот раз есть вариант автоматизировать это дело, привлекая рефералов. Вы можете заработать если »

Группа: Black Sabbath - другие аккорды (243),   о группе (21 статей),   диски (20),   фотографии (152)
Табулатура песни: Swinging The Chain
Просмотров: 988
Прислал: Sabbath (sabbath54@mail.ru)




    
from- Michael James 
Swinging The Chain
Black Sabbath - Never Say Die (1978)

|-------------------------------------------------------------------
|-------------------------------------------------------------------
|------------------------------2-2-----------------------------2-2--
|------------------------------2-2-----------------------------2-2--
|--3-0-----0-3~~-------0---0----------3-0-----0-3~~-----0---0-------
|------3-3---------------3----------------3-3-------------3---------

|----------------------------------------------------------
|----------------------------------------------------------
|---7----/9--5--2----------7---7/9---2---------------------
|---7----/9--5--2----------7---7/9---2---------------------
|---5----/7--3--0----------5---5/7---0---------------------
|----------------------------------------------------------

Продолжаем грести бабос на ботах в Telegram.
Только в этот раз есть вариант автоматизировать это дело, привлекая рефералов. Вы можете заработать если »

|---------------------------------------------------------- |---------------------------------------------------------- |-----------------------------------------5^--5------------ |-----------------------------------------5^--5------------ |--1-------1---------1----1-------1------------------------ |----3-1-3---3-1-3----------3-1-3---3-1-------------------- |---------------------------------------------------------- |---------------------------------------------------------- |---------------5--7-----------------5-5-5----------------- |-----------5---5--7-------------5---5-5-5-5--------------- |-----5h6h7----------------5h6h7-----------5--------------- |---5---------5----------5---------5-----------------------

www.rdrop.com/~mjames/sabbath/
лекарство в аптеке
список лекарств






О сайтеАккордыХит-парадПоискУроки ФорумыИщу песню
ПрограммыСвежачок-сПодпискаСтатьи
Яндекс.Метрика