Табулатура Black Sabbath | Breakout гитара табулатуры уроки тексты песен Black Sabbath текст lyrics песня аккорды песни ноты нота электрогитара струна  
   А Б В Г Д Е Ж З И К Л М Н О П Р С Т У Ф Х Ч Ш Ы Э Ю Я       Разные песни
1-9 A B C D E F G H I J K L M N O P Q R S T U V W Y Z      Все исполнители in english

    



группа Black Sabbath, Табулатура песни Breakout

Продолжаем грести бабос на ботах в Telegram.
Только в этот раз есть вариант автоматизировать это дело, привлекая рефералов. Вы можете заработать если »

Группа: Black Sabbath - другие аккорды (243),   о группе (21 статей),   диски (20),   фотографии (152)
Табулатура песни: Breakout
Просмотров: 903
Прислал: Sabbath (sabbath54@mail.ru)




    
from- Michael James 
Breakout
Black Sabbath - Never Say Die (1978)

|----------------------------------------------------------
|----------------------------------------------------------
|----------------------------------------------------------
|-----------2--------------------------2-------------------
|--2--4--5-------2------------2--4--5-------2--------------
|----------------0--------------------------0--------------
|--------------------------------
|--------------------------------
|--------------------------------
|----------2----------7--5~~-----

Продолжаем грести бабос на ботах в Telegram.
Только в этот раз есть вариант автоматизировать это дело, привлекая рефералов. Вы можете заработать если »

|-2--4--5-------2---------------- |---------------0---------------- |---------------------------------------------------------- |---------------------------------------------------------- |---------------------------------------------------------- |------------2--5--4-----7--4-------------------2---------- |---2--4--5-----------5--------5--7----2--4--5-------2----- |----------------------------------------------------0-----

www.rdrop.com/~mjames/sabbath/
найти лекарство
список лекарств






О сайтеАккордыХит-парадПоискУроки ФорумыИщу песню
ПрограммыСвежачок-сПодпискаСтатьи
Яндекс.Метрика